Enviado por:
anonimo

Ricardo Arjona, Apnea

Imprimir
Hola!!!
Les dejo el primer sencillo del disco “Viaje” de Ricardo Arjona.
La transcripción va dedicada para el amor de mi vida, es quien me
impulsa cada dia, con amor y respeto infinito… I love Cris.


Intro: (es con Piano pero pueden hacerlo con guitarra)


   F             Dm       A#          C
e|-13-12-13---------------13-12-13-12-13-15-------------|
B|------------13-15----13-------------------------------|
G|------------------------------------------------------|
D|------------------------------------------------------|
A|------------------------------------------------------|
E|------------------------------------------------------|

   F             Dm       A#          C
e|-13-12-13---------------13-12-13-12-13-17-13----------|
B|------------13-15----13-------------------------------|
G|------------------------------------------------------|
D|------------------------------------------------------|
A|------------------------------------------------------|
E|------------------------------------------------------|

VOZ:
        F             A#            F
Cabe un siglo en este martes por la noche,
       Am                                A#
Dueles más que el peor dolor que se inventó.
      F         C            Dm
El espejo lanza dardos de reproche,
      A#            C         Dm
Hoy empieza lo que ya se terminó.

       F           A#          F
La esperanza se tiró por la ventana,
     Am                       A#
El insomnio se quedó a vivir aquí
     F          C          Dm
El ayer lo dejó todo pa' mañana,

       A#            C            F
Y el mañana cuando esté yo ya me fui.


CORO:
F      C         Dm
No consigo respirar,
       A#            F              C
Hago apnea desde el día en que no estás.
F        C                Dm
Caigo hasta el fondo del mar,
   A#           F                C
Arañando la burbuja en que no estás.
Am             A#
Imposible respirar,
               C                   RIFF
El oxígeno se fue de este lugar.

RIFF

    F      Dm    A#     C
e|--5---5---5---5---5---5--3~------3--------------------|
e|----6---6---6---6---6----------6---6------------------|
e|------------------------------------------------------|x2
e|------------------------------------------------------|
e|------------------------------------------------------|
e|------------------------------------------------------|


VOZ:

     F             A#          F
Te regalo esta canción desesperada,
     Am                      A#
Desabrida como lunes por la tarde.
      F             C            Dm
Colapsado caigo al fondo y en picada,
      A#           C             Dm        C
Y no tengo ni el valor pa' ser cobarde.


CORO  (MISMOS ACORDES DEL CORO)

No consigo respirar,
Hago apnea desde el día en que no estás.
Caigo hasta el fondo del mar,
Arañando la burbuja en que no estás.
Imposible respirar,
El oxígeno se fue de este lugar.

RIFF

    F      Dm    A#     C
e|--5---5---5---5---5---5--3~------3--------------------|
e|----6---6---6---6---6----------6---6------------------|
e|------------------------------------------------------|x2
e|------------------------------------------------------|
e|------------------------------------------------------|
e|------------------------------------------------------|



PUENTE:
Dm             C
  Prisa de rendirse y claudicar,
   A#                F
Descenso en espiral profundidad.
Dm                     C
Amnesia de pelear por respirar,
  A#                 F
Deseo de rendirse en soledad.
Dm                      C
Oxigeno golpeando una pared,
   A#                    F
El pulso tropezando sin radar.
   Dm                   C
Colapsa corazón a su merced,
  A#                      C
Morir será mejor que recordar.


CORO (MISMOS ACORDES DEL CORO)

No consigo respirar,
Hago apnea desde el día en que no estás.
Caigo hasta el fondo del mar,
Arañando la burbuja en que no estás.
Imposible respirar,
El oxígeno se fue de este lugar.

RIFF

    F      Dm    A#     C
e|--5---5---5---5---5---5--3~------3--------------------|
e|----6---6---6---6---6----------6---6------------------|
e|------------------------------------------------------|x2
e|------------------------------------------------------|
e|------------------------------------------------------|
e|------------------------------------------------------|

Es todo, quedo pendiente para cualquier duda, saludos, gracias!!
Aviso: Este fichero es trabajo propio de su transcriptor y representa su interpretación personal de la canción. El material contenido en esta página es para exclusivo uso privado, por lo que se prohibe su reproducción o retransmisión, así como su uso para fines comerciales.

Califica esta canción


Comentarios en Facebook