Enviado por:
anonimo

Callejeros, Quedó

Imprimir
HOLAS!! CREO Q ESTA BIEN, ESPERO Q SI Y LES GUSTE, CUALQUIER DUDA
O ALGUN CONSEJO [email protected]
AGUANTE CALLEJEROS
CADA VEZ Q TE PUEDO VER, TE PIDO Q NO TE DEJES PORUQ NO ME QUIERO PERDER!!!



EL PUNTEO DEL BAJO LO HAGO ACA PERO SE HACE EN BASE A A#m
SE PUEDE REEMPLAZAR X A#m
ESCUCHEN BIEN LA CANCION Y VEAN BIEN CUANDO PIDE LAS NOTAS

INTRO: D#m A#m G# F# F

E------------------------|
B------------------------|
G-10-8-------10-8--------|
D------11-10------11-10--| RIFF 1
A------------------------|
E------------------------|

             F#X2 G#X2
E----------|-----|----|
B----------|-----|----|
G----------|-----|----| RIFF 2
D----------|-----|----|  X 2
A-1---1-4--|-----|----|
E---1------|-----|----|

DESPUES: A#m X8, F# X3, G# X3
         A#m X8, F# X3, G# X3
         A#m X8, F# X3, G# X3 F RIFF 1
    A#m
E----------|
B----------|
G----------|
D----------|
A-1---1-4--|
E---1------|
En la lata la quedo
     F#/F#         G#/G#
Y en su mundo se encerró
   A#m
E----------|
B----------|
G----------|
D----------|
A-1---1-4--|
E---1------|               F#
Y en sus ceremonias hace cenizA
A#m
E----------|
B----------|
G----------|
D----------|
A-1---1-4--|
E---1------|            F#/F#  G#/G#
Ya se canso de encerrarse así
A#m
E----------|
B----------|
G----------|
D----------|
A-1---1-4--|
E---1------|
Tiene miedo q golpeen
A#m
E----------|
B----------|
G----------|
D----------|
A-1---1-4--|
E---1------|
F# G#
esa puerta y del balcón
E----------|
B----------|
G----------|
D----------|
A-1---1-4--|
E---1------|          F#/F#  G#/G#
Saca la cabeza para espiar mejor
A#m           A#m
E----------|---------
B----------|---------
G----------|---------
D----------|---------
A-1---1-4--|-1---1-4-
E---1------|---1-----

A#m
E----------|
B----------|
G----------|
D----------|
A-1---1-4--|
E---1------|
Mira si alguien viene y avisa:
    F#/F#   G#/G# A#m
Anda fumando mas
A#m
E----------|
B----------|
G----------|
D----------|
A-1---1-4--|
E---1------|              F#/F#     A#m
Q hoy vas a volver hasta alla otra vez
A#m
E----------|
B----------|
G----------|
D----------|
A-1---1-4--|
E---1------|              F#/F#  G#  A#m
No contestes duende,anda y tráela ya
A#m
E----------|
B----------|
G----------|
D----------|
A-1---1-4--|
E---1------|              F#/F#  G#/G# F
Q la espera es eterna una vez más

A BASE DE: D#m A#m G# F# F
E-----------------------------------------------------------------------|
B-----------------------------------------------------------------------|
G-10-8-------10-8---8~-11-10--------------------------------------------|
D------11-10------8---------8~-11-10-8-7-8~-7-8-10~-8-10-11~-10-11-10~-|
A-----------------------------------------------------------------8-7-8~|
E-----------------------------------------------------------------------|

E-----------------------------------------------------------------------|
B-----------------------------------------------------------------------|
G---8~---------------------------------------------10-8-------10-8------|
D-8---10-11-10-8-7-8~-7-8-10~-8-10-11~-10-11-10~-------11-10------11-10-|
A-----------------------------------------------------------------------|
E-----------------------------------------------------------------------|

RIFF 2 X2

E---------------------------------------|
B-----------------------------11-9------|
G-10-10-10-10-10-10-10-13-10~------10-8-|
D---------------------------------------|
A---------------------------------------|
E---------------------------------------|


E---------------------------------------|
B------------------------------11-9-----|
G--10-10-10-10-10-10-10-10-10~------10--|
D---------------------------------------|
A---------------------------------------|
E---------------------------------------|

E--------------------------------------------------|
B--------------------------------------------------|
G--3-5-6-8-6-5-6-5-3-1---3-5-6-8-6-5-6-5-3-1-------| RIFF 1
D---------------------------------------------3~---|
A--------------------------------------------------|
E--------------------------------------------------|

A#m
E----------|
B----------|
G----------|
D----------|
A-1---1-4--|
E---1------|
Tanta lata lo dejo
           F#/F#       G#/G#
sin respuesta y sin pulmón
A#m
E----------|
B----------|
G----------|
D----------|
A-1---1-4--|
E---1------|                  F#/F#
ahora se arrepiente y es muy tarde
A#m
E----------|
B----------|
G----------|
D----------|
A-1---1-4--|
E---1------|                   F#/F#  G#/G#
ya no le importa cuanto tiene q pagar
A#m
E----------|
B----------|
G----------|
D----------|
A-1---1-4--|
E---1------|               F#/F#
solamente piensa en eso poco seso va
A#m
E----------|
B----------|
G----------|
D----------|
A-1---1-4--|
E---1------|           F#/F#  G#/G#
a quedar
A#m
E----------|
B----------|
G----------|
D----------|
A-1---1-4--|
E---1------|              F#/F#

saca la cabeza para espiar mejor
A#m
E----------|
B----------|
G----------|
D----------|
A-1---1-4--|
E---1------|              F#/F#  G#/G#

D#m                        A#m          G#      F#           F
E--------------------------------|---------------------------------|
B--------------------------------|---------------------------------|
G---8~-11-10-8-------------------|---------------------------------|
D-8-------------11~-8-8~---------|-10-10-10-10-8-8-10-8-7----------|
A--------------------------------|-------------------------8-7-8~--|
E--------------------------------|---------------------------------|
Las fabulas los cuentos de hadas | Ya no hacen efecto en mi ciudad
   D#m                 A#m                   G#      F#          F  A#m
E----------------------------------|-------------------------|
B----------------------------------|-------------------------|
G--8~----8-10~---------------------|-------------------------|
D----11------11-11-----------------|-8-10-11-10-8-8-10-8-7~--|
A----------------------------------|-------------------------|
E----------------------------------|-------------------------|
A base de base el (enjuague de hoy)|  No hay miseria peor por pasar
Aviso: Este fichero es trabajo propio de su transcriptor y representa su interpretación personal de la canción. El material contenido en esta página es para exclusivo uso privado, por lo que se prohibe su reproducción o retransmisión, así como su uso para fines comerciales.

Califica esta canción


Comentarios en Facebook