Patricio Rey Y Sus Redonditos De Ricota, El Pibe De Los Astilleros

C: crash
S: splash
H: hi-hat
R: redoblante
T1: tom 1
T2: tom 2
Ch: chancha
B: bombo
X:corchea x:semicorchea
0:corchea o:semicorchea

Intro:
inicia junto con la guitarra

                  punteo
C |-x-----------------------X-------|-------------------------X-------|
S |---------------------------------|---------------------------------|
H |---x-x-x-----x-x-x-x-x-------x-x-|-x-x-x-x-----x-x-x-x-x-------x-x-|
R |---------o-o-------------0-------|---------o-o-------------0-------|
T1|---------------------------------|---------------------------------|
T2|---------------------------------|---------------------------------|
Ch|---------------------------------|---------------------------------|
B |-0---0-----------0---0-----------|-0---0-----------0---0-----------|

            Fue unos meses a Caseros y su Strato roja

C |---------------------------------|---------------------------------|
S |---------------------------------|---------------------------------|
H |--X---X---X---X---X---X---X---X--|--X---X---X---x---X---X---X---X--|
R |----------0---------------0------|----------0-----o---------0------|
T1|---------------------------------|---------------------------------|
T2|---------------------------------|---------------------------------|
Ch|---------------------------------|---------------------------------|
B |--0---0-----------0--------------|--0---0-----------0---0----------|

                Se hizo el torbellino que hoy suena en la radio.

C |---------------------------------|---------------------------------|
S |---------------------------------|---------------------------------|
H |--X---X---X---X---X---X---X---X--|--X---X---X---x---X---X---X---X--|
R |----------0---------------0------|----------0-----o---------0------|
T1|---------------------------------|---------------------------------|
T2|---------------------------------|---------------------------------|
Ch|---------------------------------|---------------------------------|
B |--0---0-----------0--------------|--0---0-----------0---0----------|

                Le hizo un par de promesas imprudentes

C |--x------------------------------|--x------------------------------|
S |---------------------------------|---------------------------------|
H |----x-x-x-x-x-----x-x-x-x-x-x----|----x-x-x-x-x-----x-x-----x-x----|
R |--------------o-o----------------|--------------o-o-----o-o--------|
T1|---------------------------------|---------------------------------|
T2|---------------------------------|---------------------------------|
Ch|---------------------------------|---------------------------------|
B |---------------------------------|---------------------------------|

                      Y así fue que de ella se aburrió.

C |--x------------------------------|--x------------------------------|
S |---------------------------------|---------------------------------|
H |----x-x-x-x-x-----x-x-x-x-x-x----|----x-x-x-x-x--------------------|
R |--------------o-o----------------|--------------o-o----------------|
T1|---------------------------------|------------------o-o------------|
T2|---------------------------------|----------------------o-o--------|
Ch|---------------------------------|--------------------------o-o----|
B |---------------------------------|---------------------------------|

                    Las minitas aman los payasos

C |--x------------------------------|--x------------------------------|
S |---------------------------------|---------------------------------|
H |----x-x-x-x-x-----x-x-x-x-x-x----|----x-x-x-x-x-----x-x-----x-x----|
R |--------------o-o----------------|--------------o-o-----o-o--------|
T1|---------------------------------|---------------------------------|
T2|---------------------------------|---------------------------------|
Ch|---------------------------------|---------------------------------|
B |---------------------------------|---------------------------------|

                           Y la pasta de campeón.

C |--x------------------------------|---------------------------------|
S |---------------------------------|---------------------------------|
H |----x-x-x-x-x-----x-x-x-x-x-x----|------x-x------------------------|
R |--------------o-o----------------|--o-o-----o-o--------------------|
T1|---------------------------------|--------------o-o-o-o------------|
T2|---------------------------------|----------------------o-o--------|
Ch|---------------------------------|--------------------------o-o----|
B |---------------------------------|---------------------------------|

                  punteo
C |-x-----------------------X-------|-------------------------X-------|
S |---------------------------------|---------------------------------|
H |---x-x-x-----x-x-x-x-x-------x-x-|-x-x-x-x-----x-x-x-x-x-------x-x-|
R |---------o-o-------------0-------|---------o-o-------------0-------|
T1|---------------------------------|---------------------------------|
T2|---------------------------------|---------------------------------|
Ch|---------------------------------|---------------------------------|
B |-0---0-----------0---0-----------|-0---0-----------0---0-----------|

C |-X-------------------------------|---------------------------------|
S |---------------------------------|---------------------------------|
H |---------------------------------|---------------------------------|
R |---------------------------------|---------------------------------|
T1|---------------------------------|---------------------------------|
T2|---------------------------------|---------------------------------|
Ch|---------------------------------|---------------------------------|
B |---------------------------------|---------------------------------|

                  el redoblante empieza despacio y va aumentando
C |---------------------------------|---------------------------------|
S |---------------------------------|---------------------------------|
H |---------------------------------|---------------------------------|
R |-o-o-o-o-o-o-o-o-o-o-o-o-o-o-o-o-|-o-o-o-o-o-o-o-o-o-o-o-o-o-o-o-o-|
T1|---------------------------------|---------------------------------|
T2|---------------------------------|---------------------------------|
Ch|---------------------------------|---------------------------------|
B |---------------------------------|---------------------------------|

                  punteo
C |-x-----------------------X-------|-------------------------X-------|
S |---------------------------------|---------------------------------|
H |---x-x-x-----x-x-x-x-x-------x-x-|-x-x-x-x-----x-x-x-x-x-------x-x-|
R |---------o-o-------------0-------|---------o-o-------------0-------|
T1|---------------------------------|---------------------------------|
T2|---------------------------------|---------------------------------|
Ch|---------------------------------|---------------------------------|
B |-0---0-----------0---0-----------|-0---0-----------0---0-----------|

C |---------------------------------|---------------------------------|
S |---------------------------------|---------------------------------|
H |-x-x---------x-x-x---x-x-----x-x-|-x---x-x---x---------------------|
R |-----o-o-o-o-------o-----o-o-----|---o-----o---o-o-o-o-------------|
T1|---------------------------------|---------------------o-o---------|
T2|---------------------------------|-------------------------o-o-----|
Ch|---------------------------------|-----------------------------o-o-|
B |---------------------------------|---------------------------------|
Aviso: Este fichero es trabajo propio de su transcriptor y representa su interpretación personal de la canción. El material contenido en esta página es para exclusivo uso privado, por lo que se prohibe su reproducción o retransmisión, así como su uso para fines comerciales.

Califica esta canción


Comentarios en Facebook