Enviado por:
anonimo

No Te Va Gustar, Tan Lejos

Imprimir
-Primera Estrofa sin bajo-

Verso:
Una sonrriza se ve reflejada en un papel y se te empañan los ojos..
G|--------------------------------------------------------------------|
D|--------------------------------------------------------------------|
A|----------------------------------------3x----------------------3---|
E|3x----------3-5x----------------------5--------------------------3x-|

Con esas caras diciendo que todo va a estar bien y va a estar bieen..
G|------------------------------------------------------------------------|
D|------------------------------------------------------------------------|
A|--------------------------------------------3x----------------------3---|
E|-3x-----------3-5x------------------------5--------------------------3x-|


Estribillo:
       Cantando a pesar de las llamas   lala lalala lalala lalaaa..
G|--------------------------------------------------------------------|
D|--------------------------------------------------------------------|
A|-5x-----8x--------3x--------------------------3x-----8x-------------|
E|-----------------------------3x------5x----------------------3x-----|

Verso: (igual que los anteriores)

Estribillo: (igual que el anterior)

Pre-coro:

"      No llores mas             la noche es larga..."
G|---------------------------------------------------------|
D|---------------------------------------------------------|
A|-3~--3~---------------------3~--3~-----------------------|
E|----------------3~--3~-------------------3~--3~----------|
   Ya no duele el frio que te trajo hasta aca, ya no existe aca..
G|-----------------------------------------------------------------|
D|-----------------------------------------------------------------|
A|-3~--3~----------------------------------------------5~--5~------|
E|-------------------------------3~--3~----------------------------|

"        No existe ese frio que te trajo..."
G|------------------------------------------------|
D|------------------------------------------------|
A|------------------------------------------------|
E|---1~---1~----------------1-1-1-1-1-1-1-1-1-----|

Verso: (igual que los anteriores)

Estribillo: (igual que los anteriores)



x: Varias veces

Aclaro que les deje la ultima nota
luego de la x para que vean donde cambia y se puedan
guiar mejor.

Les dejo la tab, el bajo sigue las tonicas de la guitarra,
guiense mejor con eso por los tiempos en los qe cambia de nota.
Es facil, en 5 min la sacan.
Abrazo!
Cualquier cosa me escriben: rampi17hotmail.com
Aviso: Este fichero es trabajo propio de su transcriptor y representa su interpretación personal de la canción. El material contenido en esta página es para exclusivo uso privado, por lo que se prohibe su reproducción o retransmisión, así como su uso para fines comerciales.

Califica esta canción


Comentarios en Facebook