Enviado por:
anonimo

Reik, Como Te Imaginé

Imprimir
Intro

      Bm         G         D        A
e----------------------------0-----------------------|
b-------2----------------------3----2---0------------|
g---------4----------------2--------------2----------|
D-----4-----------7-5----0------------2--------------|
A---2-----------5-------------------0----------------|
E-------------3--------------------------------------|

      Bm           G        A
e----------------------------------------------------|
b-------2--------------------0-----------------------|
g---------4--------------------0-0h2-----------------|
D-----4-----------7-5------2-------------------------|
A---2-----------5--------0---------------------------|
E-------------3--------------------------------------|


(Verso 1)
*Nota:
*El primer verso YO lo toco arpegiado y a mi parecer se oye
muy bien pero es desición suya como tocarlo.Si no les gusta
pueden rasgear las notas solo denle el tiempo correcto y se
escuchara bien...

     D         D         G          G
e------------------------------------------|
b-----3---------3---------3---------3------|
g---2---2-----2---2-----0---0-----0---0----|
D-0---------0------------------------------|
A------------------------------------------|
E---------------------3---------3----------|
 Sabes  no pido nada  más   que estar entre tus

        D         D        G            Em
e--------------------------------------------------3------|
b-----3----------3---------3---------------------3---3---3|
g---2---2------2---2-----0---0-----------------0-------0--|
D-0----------0--------------------------------------------|
A---------------------------------------------------------|
E----------------------3-----------3~---2~---0~-----------|
 brazos y huir de todo mal ke ah todo ehh renunciado por

     D         A
e----------------------|
b-----3--------2-------|
g---2---2------2-------|
D-0------------2-------|
A--------------0-------|
E----------------------|
    estar junto a ti...

(Verso 2)

   D               G
Sabes no dejo de pensar
                 D
que estoy enamorado
               G
te Quiero confesar
      Em            D
que soy solo un esclavo
      A
que no sabe vivir sin ti


(Coro)

Bm     G       D
Cuando llegaste tú
     A          Bm
te metiste en mi ser
     G      D
Encendiste la luz
      A         Em
me llenaste de fe
       G          D
tanto tiempo busque
        A            Bm
pero al fin te encontré
      G          D      A
tan perfecta como te imagine nou nou


Bm     G       D
Como aguja en un pajar
       A          Bm
te busque sin cesar
     G      D
como huella en el mar
     A         Em
tan difícil de hallar
     G            D
tanto tiempo busque
       A            Bm
pero al fin te encontré
      G     A
tan perfectaaaa como te imagine

      Bm         G         D        A
e----------------------------0-----------------------|
b-------2----------------------3----2---0------------|
g---------4----------------2--------------2----------|
D-----4-----------7-5----0------------2--------------|
A---2-----------5-------------------0----------------|
E-------------3--------------------------------------|

      Bm           G        A
e----------------------------------------------------|
b-------2--------------------0-----------------------|
g---------4--------------------0-0h2-----------------|
D-----4-----------7-5------2-------------------------|
A---2-----------5--------0---------------------------|
E-------------3--------------------------------------|



(verso 3)

 D               G
sabes te quiero confesar
                          D
que te encuentro irresistible
               G
no dejo de pensar
     Em            D
que haría lo imposible
           A
por quedarme cerca de ti


(Coro)

Bm     G       D
Cuando llegaste tú
     A          Bm
te metiste en mi ser
     G      D
Encendiste la luz
      A         Em
me llenaste de fe
       G          D
tanto tiempo busque
        A            Bm
pero al fin te encontré
      G          D      A
tan perfecta como te imagine nou nou


Bm     G       D
Como aguja en un pajar
       A          Bm
te busque sin cesar
     G      D
como huella en el mar
     A         Em
tan difícil de hallar
     G            D
tanto tiempo busque
       A            Bm
pero al fin te encontré
      G     A
tan perfectaaaa como te imagine



      Bm           G        A
e----------------------------------------------------|
b-------2--------------------0-----------------------|
g---------4--------------------0-0h2-----------------|
D-----4-----------7-5------2-------------------------|
A---2-----------5--------0---------------------------|
E-------------3--------------------------------------|



(Final)

      D         D        G                        D
e-------------------------------------------------2--|
b-----3---------3---------3-----------------------3--|
g---2---2-----2---2-----0---0---------------------2--|
D-0---------0-------------------------------------0--|
A----------------------------------------------------|
E---------------------3---------3~------2~-----------|

 sabes  no pido nada   mas que estar entre tus   brazos
                     (aqui va muy lento el bajeo)

Esta cancion esta chidita y saque los arreglos lo mas facil ke
pude para ke cualkiera pueda tocarla porke vi otras
transcripciones pero estan un poco mas complicadas asi ke para
los ke apenas empiezan y kieren aprender esta sencilla...

Dedicada a una persona que me la pidio y que kiero mucho pero
a quien no tuve la oportunidad de darsela personalmente.

Para : Karla G. Lerma A.

Saludos a la banda y disfruten la canción...
Aviso: Este fichero es trabajo propio de su transcriptor y representa su interpretación personal de la canción. El material contenido en esta página es para exclusivo uso privado, por lo que se prohibe su reproducción o retransmisión, así como su uso para fines comerciales.

Califica esta canción


Comentarios en Facebook