Enviado por:
anonimo

Enanitos Verdes, No Me Veras + Metro Balderas

Imprimir
ACORDES:> G ,E.Am,C.,G,A,D

Esta es la verdadera correcion, he escuchado muy minuciosamente
varias veces. espero que les guste, cualkier kosa que mandan
un email.

       G
No me veras, no me veras
      E     Am
abrazando recuerdos
    C                 G
la vida es demasiado corta
       A             D
para vivirla en el pasado

         G
no me veras, no me veras
          E   Am
si algun dia caigo
     C                 G
no quiero q te pongas triste
            A  A7      D
si yo estoy mal de verme mal

         G
no me veras no me veras
        E      Am
pidiendote revancha
 C               G
todo lo q pueda pasarnos
           A             D
si somos sinceros estara bien

        C
te conoci sin saber
        C7
q yo te iba  querer
           G      G7
de esta manera

            C
y ahora estoy muy feliz
        C7                G      E
pq te tengo a ti por vez primera
        Am     (C,G)Remate
voy a amarte

SOLO DE BAJO

G--------------------
D-----------7h8-7-7--
A-5-7--5-7-----------
E--------------------

G--------------------
D-----------7h9-7-9--
A-5-7--5-7-----------
E--------------------
                       repetir 4 veces

SOLO DE GUITARRA
e |-----------------------------------------------
B |--10/12-8-10-8-8--6/8-8--10-8------------------
G |------------------------------9-7--------------
D |---------------------------------9-7-5-7/9-3-5-
A |-----------------------------------------------


e------------------------7-8/9-7-8-7-------|
B-7/888-7/888-7/888-7/88-------------8/9-8-|
G-6/777-6/777-6/777-6/77-------------------|
D------------------------------------------|
A------------------------------------------|
E------------------------------------------|


        C
te conoci sin saber
        C7
q yo te iba  querer
           G      G7
de esta manera

            G
y ahora estoy muy feliz
        C7                G      E
pq te tengo a ti por vez primera
        Am
voy a amarte

Cambian los acordes

LA MI RE [4 veces]

LA                 MI                RE
  Fue en la estación del metro Balderas
LA                  MI                 RE
  donde quedó la huella de nuestro amor,
LA                 MI                RE
  allá en la estación del metro Balderas
LA                  MI              RE
  Allí quedó embarrada mi reputación.

LA            MI                   RE
  Oye chofer, llévame a donde quieras
LA               MI                  RE
  llévame a la Villa o a la San Simón,
LA             MI             RE
  llévame a Copilco o a Contreras,
LA             MI                 RE (remate)
  pero no me lleves al metro Balderas.

LA                 MI                RE
  Fue en la estación del metro Balderas
LA                  MI                 RE
  donde quedó la huella de nuestro amor,
LA                 MI                RE
  allá en la estación del metro Balderas
LA                  MI              RE
  allí es donde ella se metió al talóoon...

FINAL: LA MI RE (4 veces)

Solo último

  |-----------------------------5-----|
  |---------------------8-8-7-5-------|
  |---------6-7-6-9---------------5---|
  |-7-5/7-7---------7-7-------------7-|
  |-----------------------------------|
  |-----------------------------------|





  |----------------------------5------|
  |--------------------8-8-7-5--------|
  |--------6-7-6-9---------------5----|
  |--5/7-7---------7-7-------------7--|
  |-----------------------------------|
  |-----------------------------------|





  |----------------------------5------|
  |--------------------8-8-7-5--------|
  |--------6-7-6-9---------------5----|
  |--5/7-7---------7-7-------------7--|
  |-----------------------------------|
  |-----------------------------------|

  |----------------------------5------|
  |--------------------8-8-7-5--------|
  |--------6-7-6-9--------------------|
  |--5/7-7---------7-7----------------|
  |-----------------------------------|
  |-----------------------------------|

  |---------5---------5---------5-----|
  |-8-8-7-5---8-8-7-5---8-8-7-5-------|
  |-----------------------------------|
  |-----------------------------------|
  |-----------------------------------|
  |-----------------------------------|

  |-----------------------------------------------|
  |-----------------------------------------------|
  |-5---5---5---5---5---------7^-7^-7^-7^-7---7---|
  |---7---7---7---7---7---------------------8---8-|
  |-----------------------------------------------|
  |-------------------5---------------------------|

  Fin
Aviso: Este fichero es trabajo propio de su transcriptor y representa su interpretación personal de la canción. El material contenido en esta página es para exclusivo uso privado, por lo que se prohibe su reproducción o retransmisión, así como su uso para fines comerciales.

Califica esta canción


Comentarios en Facebook