Enviado por:
anonimo








Hernan Figueroa Reyes, Zamba Del Cantor Enamorado

Imprimir
e------------------------0---5--4--5--7----7-------7-----7-5--7--8
B----------------------1-----------------5---5---5-----5----------
G--------------------2-------5--4--5--7--------7-----7-----5--7--9
D-----------0-1-2--2----------------------------------------------
A-----0-2-3-------------------------------------------------------

e----8-7-8-7-5--5-3-2-3-1-----0-0---0---0---0---0---0---0-------
B---------------------------------4---3---1---3---1---0---------
G--9---8-9-8-6--6-4-3-4-2---------------------------------------
D---------------------------6-----------------------------------
A---------------------------------------------------------------

e---------------------------------------------------------------
B---------1-----------------------------------------------------
G-------2-------------------------------------------------------
D-----2---------------2-----------------------------------------
A---0--------------------0--------------------------------------
E-----------3-1-0---0-------------------------------------------
Aviso: Este fichero es trabajo propio de su transcriptor y representa su interpretación personal de la canción. El material contenido en esta página es para exclusivo uso privado, por lo que se prohibe su reproducción o retransmisión, así como su uso para fines comerciales.

Califica esta canción


Comentarios en Facebook