Enviado por:
anonimo

Callejeros, Guiños

Imprimir
Solo:
01:24
E----------------------------------------12~---14-12/14~--------------
B-----12-10-------------------10-12-10-12b~---------------------------
G-9b--------11-9-9/11~-----11-----------------------------------------
D---------------------------------------------------------------------
A---------------------------------------------------------------------
E---------------------------------------------------------------------

E14-17b~17~---21-19-17-14-17~---16-17-16------------------------------
B-----------------------------------------17-14-17-14-17-17--17b~-----
G---------------------------------------------------------------------
D---------------------------------------------------------------------
A---------------------------------------------------------------------
E---------------------------------------------------------------------

Cualquier consulta: [email protected]
Aviso: Este fichero es trabajo propio de su transcriptor y representa su interpretación personal de la canción. El material contenido en esta página es para exclusivo uso privado, por lo que se prohibe su reproducción o retransmisión, así como su uso para fines comerciales.

Califica esta canción


Comentarios en Facebook