Enviado por:
anonimo

Melendi, Hablando En Plata

Imprimir
Esta muy completo y suena muy bien.

Hablando en plata... x 2
|----------------|----------------|----------------|----------------|
|----------------|----------------|----------------|----------------|
|----------------|5---------------|----------------|7---------------|
|3---------------|----------------|5---------------|----------------|

|----------------|----------------|----------------|----------------|
|----------------|----------------|----------------|----------------|
|----------------|5---------------|----------------|5---------------|
|3---------------|----------------|5---------------|----------------|

Me burle en la cara...
|----------------|----------------|----------------|----------------|
|----------------|----------------|----------------|----------------|
|----------------|3-----3-3-----3-|7-----7-7-----7-|5-----5-5-----5-|
|3-----3-3-----3-|----------------|----------------|----------------|

|----------------|----------------|----------------|----------------|
|----------------|----------------|----------------|----------------|
|3-----3-3-----3-|----------------|7-----7-7-----7-|5-----5-5-----5-|
|----------------|3-----3-3-----3-|----------------|----------------|

|----------------|----------------|----------------|----------------|
|----------------|----------------|----------------|----------------|
|5-----5-5-----5-|7-----7-7-----7-|3-----3-3-----3-|----------------|
|----------------|----------------|----------------|3-----3-3-----3-|

|----------------|----------------|----------------|----------------|
|----------------|----------------|----------------|----------------|
|5-----5-5-----5-|7-----7-7-----7-|3-----3-3-----3-|----------------|
|----------------|----------------|----------------|3-----3-3-----3-|

|----------------|----------------|
|----------------|----------------|
|5-----5-5-----5-|5-----5-5-----5-|
|----------------|----------------|


Hablando en plata... x 2
|----------------|----------------|----------------|----------------|
|----------------|----------------|----------------|----------------|
|----------------|5-----5-5-----5-|----------------|7-----7-7-----7-|
|3-----3-3-----3-|----------------|5-----5-5-----5-|----------------|

|----------------|----------------|----------------|----------------|
|----------------|----------------|----------------|----------------|
|----------------|5-----5-5-----5-|----------------|5-----5-5-----5-|
|3-----3-3-----3-|----------------|5-----5-5-----5-|----------------|


Ya no se si es...
|----------------|----------------|----------------|----------------|
|----------------|----------------|----------------|----------------|
|----------------|3---------------|7---------------|5---------------|
|3---------------|----------------|----------------|----------------|

|----------------|----------------|----------------|----------------|
|----------------|----------------|----------------|----------------|
|----------------|3---------------|7---------------|5---------------|
|3---------------|----------------|----------------|----------------|

|----------------|----------------|----------------|----------------|
|----------------|----------------|----------------|----------------|
|5---------------|7-----7-7-----7-|3-----3-3-----3-|----------------|
|----------------|----------------|----------------|3-----3-3-----3-|

|----------------|----------------|----------------|----------------|
|----------------|----------------|----------------|----------------|
|5-----5-5-----5-|7-----7-7-----7-|3-----3-3-----3-|----------------|
|----------------|----------------|----------------|3-----3-3-----3-|

|----------------|----------------|
|----------------|----------------|
|5-----5-5-----5-|5-----5-5-----5-|
|----------------|----------------|


Hablando en plata... x 2
|----------------|----------------|----------------|----------------|
|----------------|----------------|----------------|----------------|
|----------------|5-----5-5-----5-|----------------|7-----7-7-----7-|
|3-----3-3-----3-|----------------|5-----5-5-----5-|----------------|

|----------------|----------------|----------------|----------------|
|----------------|----------------|----------------|----------------|
|----------------|5-----5-5-----5-|----------------|5-----5-5-----5-|
|3-----3-3-----3-|----------------|5-----5-5-----5-|----------------|

Solo
|----------------|----------------|----------------|----------------|
|----------------|----------------|----------------|----------------|
|----------------|5-----5-5-----5-|----------------|7-----7-7-----7-|
|3-----3-3-----3-|----------------|5-----5-5-----5-|----------------|

|----------------|----------------|----------------|----------------|
|----------------|----------------|----------------|----------------|
|----------------|5-----5-5-----5-|----------------|5-----5-5-----5-|
|3-----3-3-----3-|----------------|5-----5-5-----5-|----------------|

|----------------|
|----------------|
|5-----5-5-----5-|
|----------------|

Hablando...
|----------------|----------------|----------------|----------------|
|----------------|----------------|----------------|----------------|
|-------2--3--4--|5-----5-5-----5-|----------------|7-----7-7-----7-|
|3---------------|----------------|5-----5-5-----5-|----------------|

|----------------|----------------|----------------|----------------|
|----------------|----------------|----------------|----------------|
|----------------|5-----5-5-----5-|----------------|5-----5-5-----5-|
|3-----3-3-----3-|----------------|5-----5-5-----5-|----------------|

|----------------|----------------|----------------|----------------|
|----------------|----------------|----------------|----------------|
|----------------|5-----5-5-----5-|----------------|7-----7-7-----7-|
|3-----3-3-----3-|----------------|5-----5-5-----5-|----------------|

|----------------|----------------|----------------|----------------|
|----------------|----------------|----------------|----------------|
|----------------|5-----5-5-----5-|----------------|5-----5---------|
|3-----3-3-----3-|----------------|5-----5-5-----5-|----------------|


Me creido...
|----------------|----------------|----------------|----------------|
|----------------|----------------|----------------|----------------|
|7---------------|3---------------|----------------|5---------------|
|----------------|----------------|3---------------|----------------|

|----------------|----------------|----------------|----------------|
|----------------|----------------|----------------|----------------|
|7---------------|----------------|5---------------|----------------|
|----------------|3---------------|----------------|3---------------|
Aviso: Este fichero es trabajo propio de su transcriptor y representa su interpretación personal de la canción. El material contenido en esta página es para exclusivo uso privado, por lo que se prohibe su reproducción o retransmisión, así como su uso para fines comerciales.

Califica esta canción


Comentarios en Facebook