Enviado por:
anonimo

Los Bunkers, Dulce Final

Imprimir
Intro:

1 -12------10------7-----5-----14-------14-------12-------12------
2 ----10-8----10-8---5-3---5-3----12-10----12-10----12-10----12-10
3 ----------------------------------------------------------------
4 ----------------------------------------------------------------
5 ----------------------------------------------------------------
6 ----------------------------------------------------------------

1 --------------------------
2 -------1-------1----------
3 -----0-------3------------
4 ---2-------2--------------
5 -3-------3----------------

verso:
A)
 Em              G         Bm      D
Me ha nublado el tiempo la razón
 Em               G         Bm     D
Me ha secado el cielo el corazón
B)
 G            Cm          G
Será que te olvidas ya de mí
 G            Cm            Em
tu bala escondida aquí en mis cesos
    F       D
no quiere salir´

A)
 Em              G         Bm      D
Un tormento eterno me hizo odiar
 Em              G         Bm
tu risa escondida en un baúl
      D
sin cerrar

B)
G          Cm        G
acaso no puedes recordar
G          Cm             Em
que el amor se escapa entre los dedos
     F       D
de un dulce final


Coro: [ es con cejillo esta parte ] para que suene bien...

C C B G Em

         Bb             Am
No te olvides que no es el final

C C B G Em
                     Bb      Am
si es que vuelto es para verme aquí
     F           D     Em      Em-Bm-C-C7        Em-D9-G-Am-Bm-D9
arrastrado hacia ti   ohhhh


Em-D9-G-Am-Bm-D9

Interlude:
1 -12------10------7-----5-----14-------14-------12-------12------
2 ----10-8----10-8---5-3---5-3----12-10----12-10----12-10----12-10
3 ----------------------------------------------------------------
4 ----------------------------------------------------------------
5 ----------------------------------------------------------------
6 ----------------------------------------------------------------

1 --------------------------
2 -------1-------1----------
3 -----0-------3------------
4 ---2-------2--------------
5 -3-------3----------------

B)

 G            Cm         G
Será que te olvidas ya de mí
 G            Cm            Em
tu bala escondida aquí en mis cesos
 F         D
no quiere salir


Coro:

C C B G Em

         Bb            Am
No te olvides que no es el final

C C B G Em
                      Bb     Am
si es que vuelto es para verme aquí


 F         Am
arrastrado hacia ti

 F         Am
arrastrado hacia ti
 F          D
arrastrado hacia ti ohhh

Outro:

Em-D9-G-Am-Bm-D9
Em-D9-G-Am-Bm-D9 Em 

1 -12------10------7-----5-----14-------14-------12-------12------
2 ----10-8----10-8---5-3---5-3----12-10----12-10----12-10----12-10
3 ----------------------------------------------------------------
4 ----------------------------------------------------------------
5 ----------------------------------------------------------------
6 ----------------------------------------------------------------

1 --------------------------
2 -------1-------1----------
3 -----0-------3------------
4 ---2-------2------------  ---------->  ahi nose xd ustedes le cambian
5 -3-------3----------------



Esta ok,, solo final creo ke hay un error.. cualker consulta- duda

[email protected]  ¡¡ los Bunkers!!,, exenle barra tambn a
los tres xd ¬¬
Aviso: Este fichero es trabajo propio de su transcriptor y representa su interpretación personal de la canción. El material contenido en esta página es para exclusivo uso privado, por lo que se prohibe su reproducción o retransmisión, así como su uso para fines comerciales.

Califica esta canción


Comentarios en Facebook