Enviado por:
anonimo

Los Piojos, El Viejo

ak lesdejo este temita del carpo q a
parece en el dvd
fantasma peliandole al viento



intro riff x 8
|---------------------------|
|---------------------------|
|---------------------------|
|---------------------------|
|---2-2---5--4-2--2-2-------|
|---0-0---0--0-0--3-4-------|

que nos ocurre despues de tanto tiempo
reflexionamos al vernos al espejo
que es lo que pasa me estoy viniendo viejo
no se de que pensar si ya no se que es lo pienso

    A5
yo soy un hombre bueno
                                 riff
lo que pasa es que me estoy viniendo viejo          EST.
     G5                          D5
tratare de hacer las cosas a su tiempo
     A5                           C5
o si no no le dare importancia al tiempo, oh no

riff x 4

no puede ser que esto nos preocupe
si estoy naciendo que bueno, que bueno
para que tantos años de experiencia
si justo ahora me doy cuenta que no tengo

yo soy un hombre bueno
lo que pasa es que me estoy viniendo viejo         EST.
tratare de hacer las cosas a su tiempo
o si no no le dare importancia al tiempo, oh no

solo: riff X 8 subida A X 2 riff X 2 G D A C riff X 4

no puede ser que esto nos preocupe
si estoy naciendo que bueno, que bueno
para que tantos años de experiencia
si justo ahora me doy cuenta que no tengo

yo soy un hombre bueno
lo que pasa es que me estoy viniendo viejo            EST.
tratare de hacer las cosas a su tiempo
o si no no le dare importancia al tiempo, oh no

riff x 8

estrofa: riff principal [para pasar a est. hace la subida]
subida: 6º|---0-0--2-2--3-3--4-4--5-5---|
EST: A X 2 riff X G D A C
solo: riff X 8 subida A X 2 riff X 2 G D A C riff X 4
riff del final X 8
|---------------------------------------|
|-----9--9-----9--9-----9---------------|
|-----7--7-----7--7-----7---------------|
|-----6--6-----6--6-----6---7--8--9-----|
|-----7--7-----7--7-----7---7--8--9-----|
|-0-0------0-0------0-0-----5--6--7-----|

|-------------------------------------------------------------------|
|-----9--9-----9--9-----9-------------------------------------9-----|
|-----7--7-----7--7-----7-------------------------------------7-----|
|-----6--6-----6--6-----6---7--8--9----7--8--9----7--8--9-----6-----|ultima
|-----7--7-----7--7-----7---7--8--9----7--8--9----7--8--9-----7-----|
|-0-0------0-0------0-0-----5--6--7----5--6--7----5--6--7---0-------|

este tema va para un amigo el ale y el colo 2 piojos
Aviso: Este fichero es trabajo propio de su transcriptor y representa su interpretación personal de la canción. El material contenido en esta página es para exclusivo uso privado, por lo que se prohibe su reproducción o retransmisión, así como su uso para fines comerciales.

Califica esta canción


Comentarios en Facebook