Enviado por:
anonimo

Los Piojos, Ando Ganas

Imprimir
 Introduccion
    D         D        C       C
|--------|--------|--------|--------|
|--7---7-|--7---7-|--5---5-|--5---5-|
|5---5---|5---5---|3---3---|3---3---|
|--------|--------|--------|--------|


 Ando ganas....
    D         D        C       C
|--------|--------|--------|--------|
|--7---7-|--7---7-|--5---5-|--5---5-|
|5---55--|5---55-5|3---3---|3---33--|
|--------|--------|--------|--------|

    D         D        C       C
|--------|--------|--------|--------|
|--7---7-|--7-----|--5---5-|--5---5-|
|5---55--|5--55555|3---3---|3---33--|
|--------|--------|--------|--------|

 Llora....
    D         D        C       C
|--------|--------|--------|--------|
|--7---7-|--7---7-|--5---5-|--5-----|
|5---5---|5---55--|3---3---|3---3333|
|--------|--------|--------|--------|

    D         D        C       C
|--------|--------|--------|--------|
|--7---7-|--7---7-|--5---5-|--5-----|
|5---5---|5---5--5|3---3---|3---3333|
|--------|--------|--------|--------|


 Estribillo
 A mi si que...
    F         F        C       C
|--------|--------|--------|--------|
|--------|--------|--5---5-|--5---5-|
|--------|--------|3---33--|3---33--|
|1-111111|11111111|--------|--------|

                     Canoa...
    C#         F        C       C
|--------|--------|--------|--------|
|--------|--------|------5-|--5---5-|
|4-444444|--------|--3-33--|-3--33-3|
|--------|1-111111|11------|--------|

     C#        F       C
|--------|--------|--------|
|--------|--------|--5-----|
|4-444444|--------|3---3333|
|--------|1-111111|--------|

**********************************
***Repite para la segunda parte***
**********************************

Solo y final hace
    D         D        C       C
|--------|--------|--------|--------|
|--7---7-|--7---7-|--5---5-|--5---5-|
|5---55--|5---55-5|3---3---|3---33--|
|--------|--------|--------|--------|

Por favor si alguien sabe arregle la parte
del estribillo que no se si esta bien.

gracias.
Aviso: Este fichero es trabajo propio de su transcriptor y representa su interpretación personal de la canción. El material contenido en esta página es para exclusivo uso privado, por lo que se prohibe su reproducción o retransmisión, así como su uso para fines comerciales.

Califica esta canción


Comentarios en Facebook