Enviado por:
anonimo

Callejeros, Ancho De Espadas

Imprimir
Hola aca les dejo la version posta de Ancho de Espadas,
la otra estaba bien, pero le faltaba el solo, y ademas le agregue
algunos riffs
Cualquier cosa les dejo mi correo [email protected]

INTRO:

e|--5-5-4-2-0---------------|
B|-----------2-2-5-7-5-7-5--|
G|--5-5-4-2-2---------------|
D|--------------------------|
A|--------------------------|
E|--------------------------|

e|-------------|
B|-7-5-3---0---|
G|-------2---2-|
D|-------------|
A|-------------|
E|-------------|


   LA
Llega la mitad del deseo
           RE               LA
cuando su brillo se posó en mi   e|--9-7-5-4-2-0-|
    LA
sus ojos se lo ayudaron
          RE                    LA
a que esa estrella me cantara así

repite los riffs y juega con otros dentro de la escala

SIm         LA
 Ya no me olvido
     SIm         LA
de lo que se olvidó
MI                LA
 de lo que se olvidó

Llegan noches interminables
con un deseo junto a una ilusión
terminé desterrado de subida
y la bajada muy pronto llegó

Siempre recuerdo   e|-17-17-|
lo que no recordó
lo que no recordó  e|----9----9-----14-12-10------------|
                   B|-12^--12^--12^----------12-9-10-12-|
Durante el estribillo una guitarra hace el riff de
la intro escuchenlo bien y lo sacan enseguida

Estribillo:
LA          RE        LA
Esa sonrisa su salvación
 LA                   RE        LA
su ancho de espadas y mi perdición
LA          RE        LA
Esa sonrisa su salvación
 LA                   MI RE    LA
su ancho de espadas y mi perdición

Llegué al curar de mis ventosas
cuando ese frío de calor me aulló
se pintaban las más hermosas
pero tu juego pronto se secó

Ya no me olvido
de lo que se olvidó
de lo que se olvido

Sus manos poseian a mis huesos
envueltos en un cuerpo al asador
sus ojos se lo ayudaron
para que me ensusiara el corazón

Siempre recuerdo
lo que no recordó
lo que no recordó

Esa sonrisa su salvación
su ancho de espadas y mi perdición
Esa sonrisa su salvación
su ancho de espadas y mi perdición

solo:
e|----------------------|-----------------------|
B|----------------------|-----------------------|
G|-------2-2---2-4-4/6--|-6-6-6-6--2-2---2p4-2--| X2
D|-2-2/4-----4----------|--------------4--------|
A|----------------------|-----------------------|
E|----------------------|-----------------------|
Aca fijense cuantas veces toca
cada nota pero creo que esa cantidad de vesces esta bien.
e|---9-9-9-9-9----7-7-7---5-|
B|--------------------------|
G|-/9-9-9-9-9---/7-7-7--/5--|
D|--------------------------|
A|--------------------------|
E|--------------------------|

e|-----5-7-7^-7-5---5-7^-7^-5---5-9-7-5-|
B|-5/7------------7-----------7---------|
G|--------------------------------------|
D|--------------------------------------|
A|--------------------------------------|
E|--------------------------------------|

Esa sonrisa su salvación
su ancho de espadas y mi perdición
Esa sonrisa su salvación
su ancho de espadas y mi perdición

Bueno espero que les sirva
Este tab se los dedico a mis amigos y a todos aquellos
que no olvidan y siempre resisten por
los sueños que se hundieron aya.
Aviso: Este fichero es trabajo propio de su transcriptor y representa su interpretación personal de la canción. El material contenido en esta página es para exclusivo uso privado, por lo que se prohibe su reproducción o retransmisión, así como su uso para fines comerciales.

Califica esta canción


Comentarios en Facebook