Enviado por:
anonimo

Silvio Rodriguez, Caballo Místico

Imprimir
Hola amigos, espero que les guste esta versión.

El intro es importante que sea asi como se indica. La canción es
practicamente arpegeada a exepción de "casi" lo último.

NOTA: El bajeo es exactamente en donde se encuentra  colocada
con la letra de la canción.
El acorde en nota inglesa arriba de la tablatura es el acorde
que se usa para hacer del arpegeo algo más cómodo.
La forma de leerlo es: La tablatura de arriba de la letra, es
la correspondiente a la letra.

INTRO:
                           C
e-----------0------------0----------0-------------0--
b-------2------------2-----------2-----------2-------
g---0-----0-----0------0-----0-----0-----0------0----
d-----2------------2-----------2-----------2---------
a--3----------3------------3----------3--------------
E----------------------------------------------------

Aqui ya se empieza a cantar:
                                     C
e--------0--------------0-----------0-----------0---------0--------0-
b-----2------------2-------------2----------2----------2--------2----
g--0----0-----0-------0------0-----0----0-----0-----0----0---0----0--
d---2-----------2--------------2----------2-----------2--------2-----
a-3---------3--------------3----------3-----------3--------3---------
E--------------------------------------------------------------------
Érase un caballo con dos alas, que subía, que volaba como volaría el

                        G con d6 ( cuerda 2a en 3er traste)
e--------------------------------------------------------------------
b--------3------3---------3-------------3-----------3--------------3-
g----0--------0-------0-------------0-----------0--------------0-----
d--0---0----0--0---0----0-------0-----0-------0---0--------0-----3---
a---2--------2-------2------------2------------2-------------2-------
E-3--------3------3-----------3--------------3-----------3-----------
 amor.            Érase un caballo con un cuerno en la naríz que en
             G con D6             C
e---------------------------------------0------0----------0---------0
b------------3---------------3-------2-------2--------2----------2---
g--------0---------------0--------0----0--0---0----0-----0----0----0-
d-----0----0--------0------0--------2------2---------2----------2----
a-------2-------------2----------3------3--------3-----------3-------
E---3-------------3--------------------------------------------------
 primavera se hizo buen galopador.               Érase un caballo con
                                   C                    G con D6
e------------0--------------0--------------0-------0------------3-3-3
b---------2-------------2-------------2--------2-------------3-3-3-3-
g-----0-----0-------0-----0--------0----0----0---0--------0----------
d-------2-------------2-------------2---------2--------0----0--------
a---3-------------3--------------3---------3-------------2-----------
E-----------------------------------------------------3--------------
 un hombre y un arquero, todo junto con un solo corazón
   F           G             C
e------1------------3-------------0--------------------
b----1---1--------3---3---------2---2-------2---0------
g---2------2-----0-----0------0-------0------------2---
d------------------------------------------------------
a-3--------------------------3--------------3---2--0---
E--------------3---------------------------------------
 Érase que un beso era el Olimpo.
   F        G             C
e----1---------3-------------0-------------------------
b---1-1------3----3--------2---2------2---0------------
g--2---2----0------0------0-----0-------------2--------
d------------------------------------------------------
a-3----------------------3------------3---2---0--------
E----------3-------------------------------------------
 Érase que abril eran la cinco.
   F           G         C         C                  G
e-----1-----------3---------0-----------0-----------------0----------
b----1-1--------3---3------2-2--------2---2-------------3----3-------
g---2---2------0-----0----0---0-----0-------0----------0------0------
d--------------------------------------------------------------------
a-3----------------------3--------3----------------------------------
E------------3---------------------------------------3---------------
 Y las patas del animal místico,  se enredaban en el aire
   G          Am
e----3-----------0-----------------------
b---3-3---------1-1-------0--------------
g--0---0-------2---2------2--0-----------
d----------------------------------------
a------------0------------0--------------
E-3--------------------------3---2-------
 con su galope magnífico.
  F             G         C         C                G
e----1--------------3--------0----------0-----------------0----------
b---1-1------------3-3------2-2-------2---2-------------3---3--------
g--2---2----------0---0----0---0----0-------0---------0-------0------
d--------------------------------------------------------------------
a-3----------------------3---------3---------------------------------
E---------------3------------------------------------3---------------
 Y era que te había conocido,     con tu nombre que volaba
   G           Am
e-----3-----------0---------0------------
b----3-3--------1--1------1--------------
g---0---0------2----2----2---------------
d----------------------------------------
a-------------0--------0-----------------
E-3--------------------------------------
 Con tu pequeño vestido.

En lo siguiente todo es rasgueado, comenzando con notas acentuadas
y despues con ritmo de huapango.
y los mismos acordes a partir de:
"y las patas del animal místico..." F-G-C-G-Am
Aviso: Este fichero es trabajo propio de su transcriptor y representa su interpretación personal de la canción. El material contenido en esta página es para exclusivo uso privado, por lo que se prohibe su reproducción o retransmisión, así como su uso para fines comerciales.

Califica esta canción


Comentarios en Facebook