Enviado por:
anonimo

Los Piojos, Civilización

Imprimir
El bajo entra en el segundo verso de la cancion.


 verso 1:
G|-------------------------------------------------------
D|-------------------------------------------------------
A|------7-----------5---5--5--4--3--5--7--3-------5------
E|--5-----5--5---7----5---------------------5--3-----3---




 verso 2:
G|-------------------------------------------------------
D|----------------------------------5--------------------
A|------7-----------5---5--5--4--3-----3--3--------5-----
E|--5-----5--5---7----5----------------------5--3-----3--






 verso 3:('no te olvides del mamut...')
G|-------------------------------------------------------
D|-------------------------------------------------------
A|------------5--5-5---3--3-3----------------------------
E|----5--5-5-------------------3--3-3--------------------




los versos 1 y 2 se intercalan durante toda la cancion.


note que en esta cancion nadie había puesto el bajo.
bueno acá esta, espero difruten tocando.
Aviso: Este fichero es trabajo propio de su transcriptor y representa su interpretación personal de la canción. El material contenido en esta página es para exclusivo uso privado, por lo que se prohibe su reproducción o retransmisión, así como su uso para fines comerciales.

Califica esta canción


Comentarios en Facebook