Enviado por:
anonimo

Los Piojos, Arco

Imprimir
Arco.

      B5        B5        B5
e|---------|---------|---------|--||
b|---------|---------|---------|--||
g|---------|---------|---------|--||
d|/9--9--13|-9--12--7|--9/12--9|x2||
a|---------|---------|---------|--||
E|---------|---------|---------|--||

Bajo:
(Durante intro)
          B
g|----------------|---||
d|----------------|---||
a|02-2-2-5-2-----2|x16||
E|----------5-2-5-|---||

Estrofa 1:

Guitarra 1:
         B5            G        D               B
e|----------------|--|-3------|-5------|----------------||--||
b|----------------|--|-3------|-7------|----------------||--||
g|4444444444444444|--|-4------|-7------|4444444444444444||--||
d|4444444444444444|x2|-5------|-7------|4444444444444444||x2||
a|2222222222222222|--|-5------|-5------|2222222222222222||--||
E|----------------|--|-3------|--------|----------------||--||
                             ^        ^

Bajo:
         B               G         D
g|----------------|--|--------|--------|----------------||--||
d|----------------|--|--------|00000000|----------------||--||
a|02-2-2-5-2-----0|x4|--------|--------|02-2-2-5-2-----0||x2||
E|----------5-2-5-|--|33333333|--------|----------5-2-5-||--||


B5
Arco
despacio tiro
        G            D
en un segundo se derrumba
      B5
de un suspiro.
B5
Guachos de pa y de mamá
          G           D
Julieta mía estoy colgando
B5
de la escala.
B5
Luces
de las estrellas
          G           D
como encerrarlas aquí dentro,
B5
en mi botella.

Intro

Estrofa 2:
Igual, excepto que se agrega de fondo la 2º guitarra:

Riffcito:

Chu chuu chu chu
     B5
e|----------|
b|----------|
g|----------|
d|-2/7---6-5|
a|----------|
E|----------|
PM       ...

B5
Parches
tan mal cosidos
        G                 D
no va quedando un pichón sano
        B5
en este nido.
B5
Pampa
cerrá las piernas
            G           D
te quiero libre del cafisho
B5
que gobierna.
B5
Nadie
del otro lao
           G    D
nadie la cuenta
         B5
nadie ha pagao.

Solo:
                                [Los 12 se pueden hacer con 11b12]
e|14-19-19-19-14--12h14-11b-11b||--------------14-----------------||--|
b|-----------------------------||12-12-12-12-12--12-12-12-12-12p10||--|
g|-----------------------------||---------------------------------||--|
d|-----------------------------||:-------------------------------:||x2|
a|-----------------------------||---------------------------------||--|
E|-----------------------------||---------------------------------||--|

e|-----------13b14------13b14|13b14b13b14b13b14--||---------------||--|
b|12-12-12-12------12-12-----|-----------------12||12p9-----------||--|
g|---------------------------|-------------------||----9-11-11/13-||--|
d|---------------------------|-------------------||:-------------:||x3|
a|---------------------------|-------------------||---------------||--|
E|---------------------------|-------------------||---------------||--|

e|-14-14-14-14-14p11-11b-11b-11b-11b---|
b|----------------------------------12/|
g|-------------------------------------|
d|-------------------------------------|
a|-------------------------------------|
E|-------------------------------------|

Fin:
(Sobre bajo)
Movete así, movete así
movete así, movete así
movete así, movete así
movete así, movete así
movete así, movete aseeeeee
movete así, movete así
movete así, movete así
movete así, movete así

(Entra guitarra)
B
movete así, movete así
sacudite nena.
Movete así, movete así,
sacudite nena
G           D          B
ya nunca no, pasará mi pena

B
movete así, movete así
sacudite nena.
Movete así, movete así,
sacudite nena
G           D          B
ya nunca no, pasará mi pena

B
no pasará mi pena?
sacudite nena
no pasará mi pena?
Nuestra pena

Sacudite nena...

(Sobre Riffcito de fondo)

B
Arco...
Arco...
Arco...
Arco...

Genial la apertura con este tema

Saludos
Aviso: Este fichero es trabajo propio de su transcriptor y representa su interpretación personal de la canción. El material contenido en esta página es para exclusivo uso privado, por lo que se prohibe su reproducción o retransmisión, así como su uso para fines comerciales.

Califica esta canción


Comentarios en Facebook