Enviado por:
anonimo

Callejeros, Puede

Imprimir
Buenisimo aca va la verdadera transcripcion de puede, la intro, y el solo..

intro despues de la bateria


e]-----------------*---------------
b]-----------------*---------------
G]-----------------*---------------
D]-------------2-2-*---------------
A]-2-----------0-0-*-2-------------
E]-0-0-4-0-5-4-----*-0-0-4-0-5-4-0-

e]-----------------*-----------------------------
b]-----------------*-----------------------------
G]-----------------*-----------------------------
D]-------------2-2-*----------------------6-7-6--
A]-2-----------0-0-*-2------------------7--------
E]-0-0-4-0-5-4-----*-0-0-4-0-5-4-0---------------


e]-------------------------------------------------------
b]--------------5-3-2-3-2--------------------------------
G]------------------------2------------------------------
D]-----------------------------------------------6-7-6---   X2
A]-2----------------------------2--------------7---------
E]-0-0-4-0-5-4------------------0-0-4-0-5-4-0------------



DESPUES DURANTE EL TEMA HACE LAS SIGUIENTES NOTAS SE TOCAN EN 5TAS
SALVO EL F#,

A        B                   A-------> VER TRANSCRIPCION * ABAJO
PUEDE MI ANGUSTIA SER TU ALEGRIA
B          C#            B-----> VER TRANSCRIPCION * ABAJO
PUEDE ESTA MELODIA SER MEJOR
A       B                 F#
PUEDE LA ASTUCIA SER ALGUN DIA
B*         A                B* A
LA SALIDA MI AGONIA IMAGINACION

LA PARTE DEL ESTRIBILLO PARA EL QUE RECIEN EMPIEZA A TOCAR
LE VA A COSTAR UN POCO
LE DEJO LAS NOTAS Y LA PARTE DEL PUNTEO

LE SVA A RESULTAR MAS FACIL HACER LAS NOTAS PERO A LOS QUE TIENEN MAS
CANCHA LES DEJO EL MINI PUNTEITO QUE HACE EN EL ESTRIBILLO.
   B         C#                A          E
e]-----------------------------------------------------------
b]-----------------------------------------------------------
G]---------------------------------------5-7-/(ESTIRAR)5---5-
D]-----------------------------------5-7-----------------7---
A]-----------------------------------------------------------
E]-----------------------------------------------------------
PUEDE MI INFIERNO SER MUCHO MAS FIEL QUE TU CIELO
  B         C#            B*
e]-----------------------------------------------------------
b]-----------------------------------------------------------
G]---------------9--8--6-----------------
D]--------------------------------------
A]-----------------------------------------------------------
E]-----------------------------------------------------------
                             G#        A#
PUEDE UN MOMENTO AMARGO SER TAN DULCE CONSUELO

e]-----------------------------------------------------------------
b]---------------------------------8---------------12--------------
G]------------------------5-----5--7/(ESTIRAR)-----11/(ESTIRAR)----
D]--------------------6-7---6-7------------------------------------
A]-----------------------------------------------------------------
E]-----------------------------------------------------------------
E                 B         F#              A
PUEDE UN SILENCIO SER MUCHO MAS DURO QUE EL CEMENTO HOOO HOOOOO

Y LA INTRO OTRA VEZ.

  A*
e]----------]
b]--2-3-2-3-]
G]--2---2---]
D]--2---2---]
A]--0---0---]
E]----------]
  B*
e]----------]
b]--4-3-4-3-]
G]--4---4---]
D]--4---4---]
A]--*---*---]
E]----------]


DESPUES ES TODO IGUAL HASTA EL SOLO,
EL SOLO ES FACIL
LA PROX TRANSCRIPCION LO MANDO!

UN SALUDOO..

DEJE TRANSCRIPCION EN ROMPIENDO ESPEJOS Y EN PALO BORRACHO FIJENSE
SON MUY BUENAS TODASS SALUDOSSS

DIEGO [email protected]
Aviso: Este fichero es trabajo propio de su transcriptor y representa su interpretación personal de la canción. El material contenido en esta página es para exclusivo uso privado, por lo que se prohibe su reproducción o retransmisión, así como su uso para fines comerciales.

Califica esta canción


Comentarios en Facebook