Enviado por:
anonimo

Los Bunkers, Andén

Capotraste en el 4º traste
*Nota: Toquen las figuras de los acordes de acuerdo al capo,
       el chiste es no tocar cejillas todo el tiempo ya que
       es muy cansado... Aquí va...



Intro: Bm    Em  D F#7  [x2]


Bm
Todavía durmiendo voy
Em                  D     F#7
con mi sombra fija en el anden
Bm
Mi cabeza en el vidrio esta
Em              D        F#
golpeando sin saber que hacer


G              D
Y ya no se muy bien
F#
desde hace tiempo
G             D
que es lo que quiero
        F#
tal vez nunca lo sabré


Bm
Nada limpio puedo sacar
Em               D     F#7
de amores que vienen y van
Bm
Nunca dejan a cambio mas
Em                       D      F#
que un mal sueño del que despertar


G          D
Toda una eternidad
F#
llevo esperando
G                  D            F#
que alguien me explique con acciones que es amar


Bm          G              D       F#
Hace muchos años que no entiendo
Bm            G                D        F#
Hacia donde me ha llevado el viento, oh no


Em
Si ya nada pudo ser
Bm
mas que como fue
Db                        F#
quisiera estar tan ciego como ayer

Intermedio:   Bm    Em  D F#7  [x2]    G  D  F#  [x2]
-encima de esto van los solos-


Bm
Todavía durmiendo estoy
Em                 D       F#7
no me queda mucho mas que hacer
Bm
Ni siquiera puedo encontrar
Em                  D   F#7
algún rostro que reconocer


G          D
Toda una eternidad
F#
llevo esperando
G                  D            F#
que alguien me explique con acciones que es amar



Bm          G               D      F#
Hace muchos años que no entiendo
Bm            G                D        F#
Hacia donde me ha llevado el viento, oh no, oh no...


Em
Si ya nada pudo ser
Bm
mas que como fue
Db                        F#
quisiera estar tan ciego como ayer



Riff de salida:

e----------------------------------------
b----------------------------------------
g------8-----8------8-----8-----8-----8--
d----8-----8------8-----8-----8-----8----
a--6-----6------8-----8-----7-----7------
e----------------------------------------


e---------------------------------------------------|
b---------------------------------------------------|
g-----8-----8-----8-----8-----8-----8-----8-----8---|
d---8-----8-----8-----8-----8-----8-----8-----8-----|
a-6-----6-----6-----6-----8-----8-----7-----7-----6-|
e---------------------------------------------------|
Aviso: Este fichero es trabajo propio de su transcriptor y representa su interpretación personal de la canción. El material contenido en esta página es para exclusivo uso privado, por lo que se prohibe su reproducción o retransmisión, así como su uso para fines comerciales.

Califica esta canción


Comentarios en Facebook