Patricio Rey Y Sus Redonditos De Ricota, El Regreso De Mao

Imprimir
INTRO:
-----

GUITARRA:
   FA#  MI  FA#  MI    RE      MI
E|----|---|----|---|-------|-------|
B|----|---|----|---|-------|-------|
G|-11-|-9-|-11-|-9-|-7-7-7-|-9-9-9-|
D|-11-|-9-|-11-|-9-|-7-7-7-|-9-9-9-|
A|--9-|-7-|--9-|-7-|-5-5-5-|-7-7-7-|
E|----|---|----|---|-------|-------|

BAJO:
   FA#  MI  FA#  MI    RE      MI
G|----|---|----|---|-------|-------|
D|----|---|----|---|-------|-------|
A|----|---|----|---|-5-5-5-|-7-7-7-|
E|-2--|-0-|-2--|-0-|-------|-------|


1er VERSO:
---------

GUITARRA:
  FA#  MI    RE      MI
E|----|---|-------|-------|----|
B|----|---|-------|-------|----|
G|-11-|-9-|-7-7-7-|-9-9-9-|-X8-|
D|-11-|-9-|-7-7-7-|-9-9-9-|----|
A|--9-|-7-|-5-5-5-|-7-7-7-|----|
E|----|---|-------|-------|----|

BAJO:
  FA#  MI    RE      MI
G|----|---|-------|-------|----|
D|----|---|-------|-------|-X8-|
A|----|---|-5-5-5-|-7-7-7-|----|
E|-2--|-0-|-------|-------|----|

FA#       MI       RE     MI       FA#   MI  RE  MI
  Se adelantó el regreso de mao,
FA#        MI        RE      MI       FA#   MI  RE  MI
  el hijo de mao, el mao blanco,
FA#        MI        RE      MI
  buena comida china le da gases,
FA#        MI        RE      MI
  y todo va bien hasta que una placa,
FA#           MI          RE          MI       FA#   MI  RE  MI
  producto de la acción, de produscto te matan.


1er ESTRIBILLO:
--------------

GUITARRA:
     FA        SOL          RE     MI        RE
E|-----3---|-------5-|----|-----|-----|-------------|
B|-------3-|-----5---|----|-----|-----|-------------|
G|---4-----|---6-----|-X3-|-(7)-|-(9)-|-------------|
D|-5-------|-7-------|----|-(7)-|-(9)-|-0-0-0-0-0-0-|
A|---------|---------|----|-(5)-|-(7)-|-------------|
E|---------|---------|----|-----|-----|-------------|

BAJO:
     FA        SOL          RE     MI        RE
G|---------|---------|----|-----|-----|-------------|
D|---------|---------|-X2-|-----|-----|-0-0-0-0-0-0-|
A|---------|---------|----|-(5)-|-(7)-|-------------|
E|-(1)-(1)-|-(3)-(3)-|----|-----|-----|-------------|

FA        SOL
  Con la granada,
FA         SOL
  ay, entre las tetas
FA        SOL
  mi amor se arrastra
RE                       MI    RE
  y se espina alla arriba.


INTERMEDIO:
----------
                               ___                  ___
GUITARRA:                     |                        |
    FA#    MI     FA#     MI  | FA#  MI     RE     MI  |
E|-12-9-|------|------|-------|----|---|-------|-------|----|
B|------|10----|-12-9-|--9----|----|---|-------|-------|----|
G|------|---11-|------|9---11-|-11-|-9-|-7-7-7-|-9-9-9-|-X2-|
D|------|------|------|-------|-11-|-9-|-7-7-7-|-9-9-9-|----|
A|------|------|------|-------|--9-|-7-|-5-5-5-|-7-7-7-|----|
E|------|------|------|-------|----|---|-------|-------|----|
                              |___                  ___|
BAJO:                          ___                  ___
    FA#    MI     FA#     MI  |FA#  MI     RE     MI   |
G|------|------|------|-------|----|---|-------|-------|----|
D|------|------|------|-------|----|---|-------|-------|-X2-|
A|------|------|------|-------|----|---|-5-5-5-|-7-7-7-|----|
E|---2--|--0---|--2---|---0---|--2-|-0-|-------|-------|----|
                              |                        |
                              |___                  ___|


2do VERSO: (igual que en el 1er VERSO)
---------

FA#       MI       RE     MI       FA#   MI  RE  MI
  Pobre nena rasgada de cutis blanco,
FA#        MI        RE      MI       FA#   MI  RE  MI
  otra vez se pesco el resfrío boliviano
FA#        MI        RE      MI
  confunde la palabra soldado y bandido
FA#        MI        RE      MI
  nadando en un zapan con mujeres iguales,
FA#           MI          RE          MI       FA#   MI  RE  MI
  a hombres iguales, a hombres buenitos.


2do ESTRIBILLO: (igual que en el 1er ESTRIBILLO)
--------------

FA        SOL
  Con la granada,
FA         SOL
  ay, entre las tetas
FA        SOL
  mi amor se arrastra
RE                       MI    RE
  y se espina alla arriba.


SOLO DE GUITARRA:
----------------

GUITARRA:
E|-12-9-|-------|------|--------|------------------------------|--
B|------|-10----|-12-9-|---9----|--------10--------------------|--
G|------|----11-|------|-9---11-|-13~-13----13-11-9----10~-10~-|--
D|------|-------|------|--------|-------------------12---------|--
A|------|-------|------|--------|------------------------------|--
E|------|-------|------|--------|------------------------------|--

BAJO:            __                           __
    FA#    MI   | FA#      MI      RE      MI   |
G|------|-------|------|--------|-------|-------|----|
D|------|-------|------|--------|-------|-------|-X8-|
A|------|-------|------|--------|-5-5-5-|-7-7-7-|----|
E|--2---|---0---|--2---|----0---|-------|-------|----|
                |                               |
                |__                           __|

-|--------------|------------(12)-|-------14~-14-18b-18b-17-17-17-14-|
-|-10-10-10-----|----10-12br------|----15----------------------------|
-|----------11~-|-11--------------|-16-------------------------------|
-|--------------|-----------------|----------------------------------|
-|--------------|-----------------|----------------------------------|
-|--------------|-----------------|----------------------------------|

|----------------------------------------------------------------14-16-|
|-15h17-16-14----------------------------------------------14-16-------|
|-------------16-14----------------------------------14-16-------------|
|-------------------16-14----------------------14-16-------------------|
|-------------------------16-14----------14-16-------------------------|
|-------------------------------16-14-16-------------------------------|

--|-18b-18-16-18/19-|
--|-----------------|
--|-----------------|
--|-----------------|
--|-----------------|
--|-----------------|


SOLO DE SAXO:
------------

GUITARRA:
     FA        SOL          RE     MI        RE
E|-----3---|-------5-|----|-----|-----|-------------|
B|-------3-|-----5---|----|-----|-----|-------------|
G|---4-----|---6-----|-X3-|-(7)-|-(9)-|-------------|
D|-5-------|-7-------|----|-(7)-|-(9)-|-0-0-0-0-0-0-|
A|---------|---------|----|-(5)-|-(7)-|-------------|
E|---------|---------|----|-----|-----|-------------|

BAJO:
     FA        SOL          RE     MI        RE
G|---------|---------|----|-----|-----|-------------|
D|---------|---------|-X2-|-----|-----|-0-0-0-0-0-0-|
A|---------|---------|----|-(5)-|-(7)-|-------------|
E|-(1)-(1)-|-(3)-(3)-|----|-----|-----|-------------|

                               ___                  ___
GUITARRA:                     |                        |
    FA#    MI     FA#     MI  | FA#  MI     RE     MI  |
E|-12-9-|------|------|-------|----|---|-------|-------|----|
B|------|10----|-12-9-|--9----|----|---|-------|-------|----|
G|------|---11-|------|9---11-|-11-|-9-|-7-7-7-|-9-9-9-|-X2-|
D|------|------|------|-------|-11-|-9-|-7-7-7-|-9-9-9-|----|
A|------|------|------|-------|--9-|-7-|-5-5-5-|-7-7-7-|----|
E|------|------|------|-------|----|---|-------|-------|----|
                              |___                  ___|
BAJO:                          ___                  ___
    FA#    MI     FA#     MI  |FA#  MI     RE     MI   |
G|------|------|------|-------|----|---|-------|-------|----|
D|------|------|------|-------|----|---|-------|-------|-X2-|
A|------|------|------|-------|----|---|-5-5-5-|-7-7-7-|----|
E|---2--|--0---|--2---|---0---|--2-|-0-|-------|-------|----|
                              |                        |
                              |___                  ___|


3er VERSO: (igual que en el 1er VERSO)
---------

FA#       MI       RE     MI       FA#   MI  RE  MI
  Calores dragones, traigo resfríos,
FA#        MI        RE      MI       FA#   MI  RE  MI
  quemando cohetes nuevo sacrificio,
FA#        MI        RE      MI
  china significa reino del medio,
FA#        MI        RE      MI
  sendero luminoso, laja cristalina,
FA#           MI          RE          MI       FA#   MI  RE  MI
  que adelantó el regreso de mao.


2do ESTRIBILLO: (igual que en el 1er ESTRIBILLO)
--------------

FA        SOL
  Con la granada,
FA         SOL
  ay, entre las tetas
FA        SOL
  mi amor se arrastra
RE                       MI    RE
  y se espina alla arriba.

GUITARRA:
    FA#    MI     FA#     MI    FA#  MI  RE
E|-12-9-|------|------|-------|----|---|-----|
B|------|10----|-12-9-|--9----|----|---|-----|
G|------|---11-|------|9---11-|-11-|-9-|-(7)-|
D|------|------|------|-------|-11-|-9-|-(7)-|
A|------|------|------|-------|--9-|-7-|-(5)-|
E|------|------|------|-------|----|---|-----|

BAJO:
    FA#    MI     FA#     MI    FA#  MI  RE
G|------|------|------|-------|----|---|-----|
D|------|------|------|-------|----|---|-----|
A|------|------|------|-------|----|---|-(5)-|
E|---2--|--0---|--2---|---0---|--2-|-0-|-----|


FIN.
Aviso: Este fichero es trabajo propio de su transcriptor y representa su interpretación personal de la canción. El material contenido en esta página es para exclusivo uso privado, por lo que se prohibe su reproducción o retransmisión, así como su uso para fines comerciales.

Califica esta canción


Comentarios en Facebook