Enviado por:
anonimo

Callejeros, La Buena Vida

Imprimir
[INTRO]

E-A-D E-A-D-A x2

Y dsps hace:

   E                    B     A    E   B
e|---------------------------------------------------|
B|---------------------------------------------------|
G|---------------------------------------------------|
D|---------------------------------------------------|
A|---------------------------------7-----------------|
E|-0~-3-5-3-0~-3-555-3--777-7/555-5--4/777-3-4-5-777-|


[VERSO]

E         A        D          A         E-A-D-A
Todo empezó cuando él quiso que lo sigan
E         A        D          A         E-A-D-A
todo empezó cuando él se aferró al poder

[ESTRIBILLO]

E
Todo siguió, todo siguió
     B         A        E     B
con vida para pocos la buena vida
      A         E     B
para muchos sin garantias

A-E A-E-A-B (Aca con tocar el bajo d cada nota suena bien iwal)

[VERSO]

Ahora tenes muchos shoppings para gastar
la guita que te extirpan los pocos con buena vida

[ESTRIBILLO]

Todo siguió, todo siguió
con risas, risas del que domina
risas que no dan risas

A-E A-E-A-B

[PUENTE]

A        B
No nos va a aplastar
F#m              B
solitos se quedaran
A                  E
creyendo que al futuro
          B
lo empuña él

A            E
La meta de poder llegar
A              B
a ser mas que los demas
A            E
a este le picó
     B
fuerte

E (Dsps d unos golpes distorsiona con palanca)

[SOLO] En base A-B-D-A-B

e|------------------------------5~--------5~-
B|----------------------------5----(5)-------
G|------------------------6-7---------7-6----
D|-9b-9b-9br-7/9-9br-7/9---------------------
A|-------------------------------------------
E|-------------------------------------------

e|-4h57-4h57--4h574-5555-4~-| (Esta parte es muy rapida)
B|--------------------------|
G|--------------------------|
D|--------------------------|
A|--------------------------|
E|--------------------------|

[VERSO]

Ahora argumentan que hay plena libertad
libertad para mirar como se reparten tu tierra

[ESTRIBILLO]

Todo siguió, todo siguió
con vida para pocos la buena vida
para muchos sin garantias

A-E A-E-A-B

[PUENTE]

No nos va a aplastar
solitos se quedaran
creyendo que al futuro
lo empuña él

La meta de poder llegar
a ser más que los demas
a este le picó
fuerte

La meta de poder llegar
a ser más que los demas
a este le picó
fuerte

fuerteee

   E       A             E       A
e|--------------------------------------------|
B|--------------------------------------------|
G|--------------------------------------------|
D|--------------------------------------------|
A|--------------------------------------------|
E|-00000-3-5~-55555-4-2--00000-3-5~-55555-4-2-|

   E       A            B
e|---------------------------|
B|---------------------------|
G|---------------------------|
D|---------------------------|
A|---------------------------|
E|-00000-3-5~-55555-4-2-7777-|


fuertee

E-A x2 E-A-B (Alarga el B)

[FINAL]

B-A-G#-B-E



Para los q conozcan este rocanrol d uno d los demos d la banda
seguro q no les va a costar tanto sacarlo
para cualkier corrección o lo q sea mandan mail a
[email protected]
Aguante el Rock n' roll y nada mas,
es algo que los chetos no pueden entender!
Aviso: Este fichero es trabajo propio de su transcriptor y representa su interpretación personal de la canción. El material contenido en esta página es para exclusivo uso privado, por lo que se prohibe su reproducción o retransmisión, así como su uso para fines comerciales.

Califica esta canción


Comentarios en Facebook