Acordes y tablaturas para guitarra

Acordes y Tablaturas
Usuario: Password:

Buscar:
Acordes y Tablaturas >> Letra C >> Acordes de Charly garcia >> Himno nacional argentino
Tablatura de Himno nacional argentino, Charly garcia

Himno nacional argentino

Charly garcia






1------------------------------------------------------------------------
2--------------------------------------------------------2-0-----2-0-----
3-----------------------------------------------------------2-2-2---2-2-2
4------2-0---------------4-2-1-0-2---0---0---0---0---0-------------------
5—0-4-0---2-----0-2-0-4-4-------2-4-0-4-2-4-2-4-2-4-2-4-2----------------
6----------4-4-4---------------------------------------------------------

1----------------------------------------------------------------0-0-0---
2-3-2-0-0-0-3-2-0-0-0-5-3-2-2-2-5-3-2-2-2-7-5-3-3-3-9-7-5-5-5-10-2----3-0
3----------------------------------------------------------------2-------
4----------------------------------------------------------------2-------
5----------------------------------------------------------------0-------
6------------------------------------------------------------------------

1---0-0-0--------------0-
2---2----3-0--2-2-2----2-
3-1-2-------1--2-2-2-2-2-
4---2------------------2-
5---0------------------0-
6------------------------
         A          E       A
 Oíd, mortales, el grito sagrado:
  A7    D         E   E7    A
 ¡Libertad, libertad, libertad!
          A      B7       E    E7
 Oíd el ruido de rotas cadenas,
          D        B7          E  E7
 Ved en trono a la noble igualdad.
        Am      Dm         F E
 Ya su trono dignísimo abrieron
  E7     Am Am/G   F B7       E  E7
 las provin-cias uni-das del sud,
       Am          E        Am     E
 y los libres del mundo responden:
          Am          E     Am
 al gran pueblo argentino salud,
Am/G       F         B7      E  E7
 Al gran pueblo argentino salud.
        A         F#       Bm    Dm
 Y los libres del mundo responden:
           A          E      A
 Al gran pueblo argentino salud.

1-------------------------------------------------------------------
2-2-0-----2-0-----3-2-0-0-0-3-2-0-0-0-5-3-2-2-2-5-3-2-2-2-7-5-3-3-3-
3----2-2-2---2-2-2--------------------------------------------------
4-------------------------------------------------------------------
5-------------------------------------------------------------------
6-------------------------------------------------------------------

1--------------0------0-0-0------------0
2-9-7-5-5-5-10-2-3-0--2----3-0--2-2-2--2
3--------------2----1-2-------1--2-2-2-2
4--------------2------2----------------2
5--------------0------0----------------0
6---------------------------------------


        A      	E      A
 SEAN ETERNOS LOS LAURELES
        A     E     A
 QUE SUPIMOS CONSEGUIR,
 A             E      A
 SEAN ETERNOS LOS LAURELES
       D     B7    E  E7
 QUE SUPIMOS CONSEGUIR...
     Bm         E       A  B7  E
 CORONADOS DE GLORIA VIVA-AAAA-AMOS,
      A          E     A
 O JUREMOS CON GLORIA MORIR.
 D    A          E     A
 O JUREMOS CON GLORIA MORIR.
 D    A          E     A
 O JUREMOS CON GLORIA MORIR.
 D    A          E     A
 O JUREMOS CON GLORIA MORIR
A A A A



mi e-mail es:[email protected]

Fuente original: LaCuerda
Colaborador original: carlos [[email protected]]

Que te parecio? Calificalo con estrellas!!

Rating: 7.7/10 (426 votos)

Este fichero es trabajo propio de su transcriptor y representa su interpretación personal de la canción. El material contenido en esta página es para exclusivo uso privado, por lo que se prohibe su reproducción o retransmisión, así como su uso para fines comerciales.


Deja tus comentarios:

Letras de Charly garcia
Letras de canciones | Musica Independiente