Enviado por:
anonimo

Los Bunkers, Buscando Cuadros

Imprimir
Buscando Cuadros


Saludos a todos músicos Chilenos, y una mención especial
a la mejor banda emergente de Chile Ley del Mono.
Bien aquí les dejo el bajo de este gran Temaso de los bunkers.
Disfrútenlo.........................


  Buscando cuadros viendo cartas......
G|------7-7-7-5-----5-7-------------|
D|--------------7-7-----------------|
A|--5-5-----------------------------|
E|----------------------------------|

  Mantel blanco solo puede sostener su respiración
G|---------------------------------------------------|
D|------------------4-2-0----------------------------|
A|------------------------4-2-0-2-4------------------|
E|--2-2-2-2-2-2-2-2----------------------------------|


G|-----7-7-7-5-----5-7----|
D|-------------7-7--------|
A|-5-5--------------------| X2
E|------------------------|

   Sorteare mi ansiedad                           Wo oh oh
G|--------------------------------|         |-----7-7-7-5-----5-7--|
D|--------------------------------|         |-------------7-7------|
A|--------------------------------|         |-5-5------------------| X2
E|-3-3-3-X16---5-5-5-X8-/17-17-17-|         |----------------------|


  Sillas malas sostienen mi cuerpo.......
G|------7-7-7-5-----5-7-------------------|
D|--------------7-7-----------------------|
A|--5-5-----------------------------------|
E|----------------------------------------|


  Y mi cabeza se estrella y ya no puede pensar
G|------------------------------------------------|
D|------------------4-2-0-------------------------|
A|------------------------4-2-0-2-4---------------|
E|--2-2-2-2-2-2-2-2-------------------------------|


G|-----7-7-7-5-----5-7---|
D|-------------7-7-------|
A|-5-5-------------------| X2
E|-----------------------|


  Sorteare mi ansiedad               Wo oh oh
G|---------------------------------|
D|---------------------------------|
A|---------------------------------|
E|-3-3-3-X16---5-5-5-X8-/17-17-17--|


                             Wo oh oh
G|-----7-7-7-5-----5-7--|----------------------|
D|-------------7-7------|-----5-5-5-3-----3-5--|
A|-5-5------------------|-------------5-5------| X2
E|----------------------|-3-3------------------|


  Piensa piensa como podré respirar oyendo el murmullo sobre mi cabeza
G|----------------------------------------------------------|
D|----------------------------------------------------------|
A|-------0-1-1-1---2-2-2-5-5-2-----------0-1-1-1---2-2-2-0--|
E|-2-2-2---------2-------------5-3-2-2-2---------2----------|


  Sorteare mi ansiedad         Wo oh oh
G|----------------------------|
D|----------------------------|
A|----------------------------|
E|-3-3-3-3-5-5-5-X8/17-17-17--|


  Solo:
G|-----7-7-7-5-----5-7----|
D|-------------7-7--------|
A|-5-5--------------------| X4
E|------------------------|


G|----------------------------------|
D|-----------------4-2-0------------|
A|-----------------------4-2-0-2-4--|
E|-2-2-2-2-2-2-2-2------------------|


G|-----7-7-7-5-----5-7--|
D|-------------7-7------|
A|-5-5------------------| X2
E|----------------------|


G|-----------------------------------|
D|-----------------------------------|
A|-----------------------------------|
E|-3-3-3-X16---5-5-5-X8-/17-17-17----|


G|-----7-7-7-5-----5-7--|
D|-------------7-7------|
A|-5-5------------------| X2
E|----------------------|


  Buscando cuadros viendo cartas......
G|------7-7-7-5-----5-7-------------|
D|--------------7-7-----------------|
A|--5-5-----------------------------|
E|----------------------------------|


  Mantel blanco solo puede sostener su respiración
G|---------------------------------------------------|
D|------------------4-2-0----------------------------|
A|------------------------4-2-0-2-4------------------|
E|--2-2-2-2-2-2-2-2----------------------------------|


G|-----7-7-7-5-----5-7----|
D|-------------7-7--------|
A|-5-5--------------------| X2
E|------------------------|


  Sorteare mi ansiedad                Wo oh oh
G|--------------------------------|
D|--------------------------------|
A|--------------------------------|
E|-3-3-3-X16---5-5-5-X8-/17-17-17-|


                             Wo oh oh
G|-----7-7-7-5-----5-7--|----------------------|
D|-------------7-7------|-----5-5-5-3-----3-5--|
A|-5-5------------------|-------------5-5------| X3
E|----------------------|-3-3------------------|

El Tema finaliza en Re
Aviso: Este fichero es trabajo propio de su transcriptor y representa su interpretación personal de la canción. El material contenido en esta página es para exclusivo uso privado, por lo que se prohibe su reproducción o retransmisión, así como su uso para fines comerciales.

Califica esta canción


Comentarios en Facebook