Las Pastillas Del Abuelo, Leer Y Escribir

Imprimir
Ahí va un temazo de laspas.

Intro

(punteo de guitarra)
E5 x E5 x E5 E5 EmEmEmEm

(trompeta)
Em - B7  x4                  Riff 1
                       D----------------
                       A-0/2--0---------
                       E---------3--2---

Em               B7            Riff 1
Como empezar a leer no hay apertura,
Em                       B7                 Riff 1
 Como tildar a alguien soberbio no hay peor tilde,
Em                 B7           Riff 1
 Como maestra la mejor es la lectura,
Em                   B7
 Como primera condición ser bien humilde.

     Em        B7            Em          B7
e------0-7-777---5/7-5---------------------------5
B--7/8-------------------8-7-8--5--0--000--4--7---
G-------------------------------------------------
D-------------------------------------------------
A-------------------------------------------------
E-------------------------------------------------

     Em        B7            Em          B7
e------0-7-777---5/7-5----------------------------
B--7/8-------------------8-7-8--5--0--000---4---7-
G-------------------------------------------------
D-------------------------------------------------
A-------------------------------------------------
E-------------------------------------------------

Porque leer es
Em                B7
 como teletransportarse
Em                  B7
 Como un interno murmullo
Em                     B7
 Es como amar, es entregarse
Em                 B7
 Como hacer mio lo tuyo!
                             Riff 2
                         D------------
                         A--------0-2-
                         E--0/2-3-----
C
Con mis pupilas hambrientas
D                        Em   Riff 2
Deboro copia tras copia
C
Mente y emociones filtran,
D                      Em   Riff 2
Formo ideas propias.
C                       D               Em  Riff 2
Abierto a leer estoy, todo cuanto se lea.
C                         D                B7
Mi conciencia filtra y formo mi propia ideaAAAA

G                         D
A leer cuanto se pueda y a escribir,
Que ese sea el ocio
Em
 que para el sistema
       C
Cada ignorante es negocio!
G
Que alcohol, que paco y falopa
D
 Que tácita libertad.
Em
El sistema levanta copas
C     C      B7    B7   Em
Ya dormida esta la sociedaad.

solo de piano  Em - B7
solo de trompeta
Riff 2
Em                   B7              Riff 1
 Como empezar a escribir, no hay aventura.
Como abismarse al interior, no hay más abismo.
Como escalera la mejor es la escritura.
Como primera religión, catarsisismo.

     Em        B7            Em          B7
e------0-7-777---5/7-5---------------------------5
B--7/8-------------------8-7-8--5--0--000--4--7---
G-------------------------------------------------
D-------------------------------------------------
A-------------------------------------------------
E-------------------------------------------------

     Em        B7            Em          B7
e------0-7-777---5/7-5----------------------------
B--7/8-------------------8-7-8--5--0--000---4---7-
G-------------------------------------------------
D-------------------------------------------------
A-------------------------------------------------
E-------------------------------------------------

Porque escribir es
Em                 B7
 como romper el hechizo,
Em                 B7
 Como saltar al vacío.
Em                 B7
 Como alentar al sumiso,
Em                  B7
 Como hacer tuyo lo mio.

C                   D                 Em Riff 2
La madera absorbe rios de tinta bruja!
Que hígados son importa consciencia misma!
Una mano artista las ideas dibujan!
C
Mente y emociones
D                 B7
Tanto ángel prismaAAAA

G                         D
A leer cuanto se pueda y a escribir,
Que ese sea el ocio
Em
 que para el sistema
       C
Cada ignorante es negocio!
G
Que alcohol, que paco y falopa
D
 Que tácita libertad.
Em
El sistema levanta copas
C     C      B7    B7   Em
Ya dormida esta la sociedaad.

Em
Em - B7 x4 solo de piano
Em - B7 x4 trompetas
Em


Marcos Espinoza
[email protected]
Aviso: Este fichero es trabajo propio de su transcriptor y representa su interpretación personal de la canción. El material contenido en esta página es para exclusivo uso privado, por lo que se prohibe su reproducción o retransmisión, así como su uso para fines comerciales.

Califica esta canción


Comentarios en Facebook