Enviado por:
anonimo

Enanitos Verdes, Qué Hacemos?

Imprimir
Ese es el segundo solo, que es el que les faltaba. En la parte
De los * se hace (si quieren, en realidad la canción no los
lleva, solo es para darle vida) harmónicos de púa bien nítidos.

E||-----------------------------------------------------------------||
B||-----------------------------------------------------------------||
G||-------7-9-9b(11)-7~~--6-----------------7p6-7p6-----------------||
D||----7-9------------------7---9~~-----7-9---------7---------------||
A||-7h9-----------------------9------7h9--------------10-9-10-9-7~~-||
E||-----------------------------------------------------------------||

E||------------------------------------------------------||
B||------------------------------------------------------||
G||------------------------------------------------------||
D||-------7*--0h2p0-5*-0h2p0-4*--------------------------||
A||-5-7-5-----------------------5-4-2-0~-0-2-4-5-4-2-0~~-||
E||------------------------------------------------------||

E||------------9v~---7v~-9b(10)r9----7v~~-------7-10p9----------------||
B||-------7-10----10--------------10-------7-10--------10-------------||
G||----7-9------------------------------------------------7s6-7-9-----||
D||-7h9-----------------------------------------------------------7~~-||
A||-------------------------------------------------------------------||
E||-------------------------------------------------------------------||

E||----------------------------------s9-9-10-12-14-12-10-9-12-10-9-10~-||
B||-------7h8p7~-----------7v~~~-s10-----------------------------------||
G||-6-7-9--------9-7-6-7-9---------------------------------------------||
D||--------------------------------------------------------------------||
A||--------------------------------------------------------------------||
E||--------------------------------------------------------------------||


Eso es todo.

Saludos.
Aviso: Este fichero es trabajo propio de su transcriptor y representa su interpretación personal de la canción. El material contenido en esta página es para exclusivo uso privado, por lo que se prohibe su reproducción o retransmisión, así como su uso para fines comerciales.

Califica esta canción


Comentarios en Facebook