Enviado por:
anonimo

Maná, Ana (unplugged)

Imprimir
esta cancion es genial
lo que mas me gusta es el intro del bajo
que chala
ahi les va
Intro
00:10
E|--------------|
A|--9--------9--|
D|---9/11-99----|
G|--------------|

E|-------------|-----4-2-|-2-22-22---|------|
A|--44-4-4-2-0-|-0-0-----|---------2-|-2-2--|
D|-------------|---------|-----------|------|
G|-------------|---------|-----------|------|

Ana tiene 15
E|------|------|----2-|------|
A|------|---7--|---4--|-222--|x2
D|---6--|-77-7-|-44---|------|
G|--6-6-|------|------|------|


E|-------------|-----4-2-|-2-22-22---|-------|
A|--44-4-4-2-0-|-0-0-----|---------2-|-2-22--|x3
D|-------------|---------|-----------|-------|
G|-------------|---------|-----------|-------|

Ana no lo cuenta
E|------|------|----2-|------|
A|------|---7--|---4--|-222--|x2
D|---6--|-77-7-|-44---|------|
G|--6-6-|------|------|------|

se siente morir
E|-------------|-----4-2-|-2-22-22---|-------|
A|--44-4-4-2-0-|-0-0-----|---------2-|-2-22--|x3
D|-------------|---------|-----------|-------|
G|-------------|---------|-----------|-------|

Ana se ira algun dia
E|--44-444-44-444-|-55-555-55-555--|
A|----------------|----------------|
D|----------------|----------------|
G|----------------|----------------|

Ana se ira de este mundo
E|--00-000-00-000-|--------------------|
A|----------------|-22-222-22----------|
D|----------------|-----------444-222--|
G|----------------|--------------------|

Ana se ira algun dia
E|--44-444-44-444-|-55-555-55-555--|
A|----------------|----------------|
D|----------------|----------------|
G|----------------|----------------|

Ana se ira de este mundo
E|--00-000-00-000-|----------------|
A|----------------|-22-222-22------|
D|----------------|----------------|
G|----------------|-----------4/6--|

E|-------------|-----4-2-|-2-22-22---|-------|
A|--44-4-4-2-0-|-0-0-----|---------2-|-2-22--|
D|-------------|---------|-----------|-------|
G|-------------|---------|-----------|-------|

En casa de ana
E|----|---|-2-|---|----|----|-22-|-----|
A|--4-|-0-|---|-2-|-44-|-00-|----|-22--|
D|----|---|---|---|----|----|----|-----|
G|----|---|---|---|----|----|----|-----|

y en desesperacion
E|-------------|-----4-2-|-2-22-22---|-------|
A|--44-4-4-2-0-|-0-0-----|---------2-|-2-22--|x3
D|-------------|---------|-----------|-------|
G|-------------|---------|-----------|-------|

Ana se ira algun dia
E|--44-444-44-444-|-55-555-55-555--|
A|----------------|----------------|
D|----------------|----------------|
G|----------------|----------------|

Ana se ira de este mundo
E|--00-000-00-000-|--------------------|
A|----------------|-22-222-22----------|
D|----------------|-----------444-222--|
G|----------------|--------------------|

Ana se ira algun dia
E|--44-444-44-444-|-55-555-55-555--|
A|----------------|----------------|
D|----------------|----------------|
G|----------------|----------------|

Ana se ira de este mundo
E|--00-000-00-000-|----------------|
A|----------------|-22-222-22-2/4--|
D|----------------|----------------|
G|----------------|----------------|

E|-------------|-----4-2-|-2-22-22---|-------|
A|--44-4-4-2-0-|-0-0-----|---------2-|-2-22--|
D|-------------|---------|-----------|-------|
G|-------------|---------|-----------|-------|

E|-------------|-----4-2-|-2-22-22---|----------|
A|--44-4-4-2-0-|-0-0-----|---------2-|----------|
D|-------------|---------|-----------|-444-222--|
G|-------------|---------|-----------|----------|

E|-------------|-----4-2-|-2-22-22---|-------|
A|--44-4-4-2-0-|-0-0-----|---------2-|-2-22--|x3 creo
D|-------------|---------|-----------|-------|
G|-------------|---------|-----------|-------|

Final
E|----|---|-22--|
A|--4-|-2-|-----|
D|----|---|-----|
G|----|---|-----|

atte. miauricio gatolar
Aviso: Este fichero es trabajo propio de su transcriptor y representa su interpretación personal de la canción. El material contenido en esta página es para exclusivo uso privado, por lo que se prohibe su reproducción o retransmisión, así como su uso para fines comerciales.

Califica esta canción


Comentarios en Facebook