Enviado por:
anonimo

Callejeros, Milonga De Rock And Roll

Imprimir
INTRO:

e-----------------------------
B-2-3-3-2-7-8-8-7-9-10-9-2-3-2
G-2-2-2-2-7-7-7-7-9-9- 9-2-2-2
D-2-----2-7-----7-9--- 9-2---2
A-----------------------------
E-----------------------------

---------------------------------
B-15-15-14-17-14----------17-----
G-14-14-14-------16-14-16e-16e-14
D--------------------------------
A--------------------------------
E--------------------------------



e---------------------------------------------
B-----------------------8---------------------
G-7-9-9-7-5-7-5-5-7>>>9---9-7-5-5-5-7>>>9-7>>>
D--------------7---------------7-7------------
A---------------------------------------------
E---------------------------------------------

e-----------------------------------------
B---15-15-14-17-14----------17-----17-14--
G--14-14-14-------16-14-16e-16e-14------14
D-----------------------------------------
A-----------------------------------------
E-----------------------------------------

LA5                REsus2       MI7       Riff1
Vos sos el que se escapa de las fauces del león

LA5              REsus2            MI7              riff2
ese que te hace caminar, mirando atrás, bañado en sudor

LA5             REsus2        MI7            riff3
vas buscando la magia y ya corrés contra el reloj

LA5             REsus2       MI7                LA5
ya te persiguen sirenas la fiera va más dura que vos


ESTRIBILLO:

LA5  REsus2     MI7     Riff3
Ésta noche la manija te ganó

LA5  REsus2     MI7          Riff4
ésta noche caminás sin dirección


LA5  REsus2     MI7      Riff3
Ésta noche la manija te ganó

LA5  REsus2    MI7             LA5
ésta noche caminamos sin direccion





e------------------------------------------------
B-2-3-3-2-15-15-14-17-14----------17-----17-14---
G-2-2-2-2-14-14-14-------16-14-16e-16e-14------14
D-2-----2----------------------------------------
A------------------------------------------------
E------------------------------------------------



LA5              REsus2         MI7        riff1
Vos sos el que no duerme y se sofoca sin razón


LA5                  REsus2      MI7        riff2
y que cuando falta un pase se disfraza de ladrón



LA5               REsus2         MI7         riff3
ruedan tus noches ruedan, sube y baja tu emoción


LA5             REsus2       MI7                 LA5
ya te persiguen sirenas la fiera va mas dura que vos


LA5  REsus2     MI7     Riff3
Ésta noche la manija te ganó

LA5  REsus2     MI7          Riff4
ésta noche caminás sin dirección


LA5  REsus2     MI7      Riff3
Ésta noche la manija te ganó

LA5  REsus2    MI7             LA5
ésta noche caminamos sin dirección


cuando dice ´´tus entrañas……´´ hace esto:

e-------------------------------------------------------
B--------12-12-----------10-10------17-17----------17---
G-2>>>11------11----8>>>9-----9>>>16-----16-14-16e---16e
D-------------------------------------------------------
A-------------------------------------------------------
E-------------------------------------------------------

e----------------------------------------------------------------
B--------12-12-----------10-10------17-17----------17------------
G-2>>>11------11----8>>>9-----9>>>16-----16-14-16e---16e-14----14
D-----------------------------------------------------------16---
A----------------------------------------------------------------
E----------------------------------------------------------------

SI        REsus2      LA5
   Tus entrañas piden más y no paran de pedir más


SI      REsus2                   MI7
   y la fiera te moja la oreja siempre y sin parar.



LA5  REsus2     MI7     Riff3
Ésta noche la manija te ganó

LA5  REsus2     MI7          Riff4
ésta noche caminás sin dirección


LA5  REsus2     MI7      Riff3
Ésta noche la manija te ganó

LA5  REsus2    MI7
ésta noche caminamos


En el final hace esto 3 veces

e-----------------------------------------------
b-----------------------------------------------
G-----------------------------------------------
D------------10-12-10-10-12-14-12-12-------x----
A-10-12-10-10-8-----8-8--10----10-10-10-10-x--10
Em 8-----8--8-------------------------8-8--x---8



Y en la 4 hace:

e-------------------------------------------8
B-------------------------------------------8
G-------------------------------------------9
D------------10--12-10-10-12-14-12-14-12---10
A-10-12-10-10-8------8--8-10----10----10---10
E--8-----8--8-------------------------------8


-----------------------------------------------
-----------------------------------------------


Riff1
e--------------------
B--------------------
G--------------------
D---7-7-5-5-7-7-5>>>7
A--------------------
E--------------------

Riff2
e--------------------
B--------------------
G--------------------
D----5- 5---5>>>7----
A---7--7--7----------
E--------------------


Riff3
e---5-5------------
B---5-5-7-5--------
G----------5-6-----
D------------------
A------------------
E------------------

Riff4
e----5-----5-----5-----5--------
B----5-----5-----5-----5--------
G--7e----7e----7e----7e----7e-5-
D------------------------------7
A-------------------------------
E-------------------------------



E:ESTIRAR
>>>:deslizar hasta la nota
Aviso: Este fichero es trabajo propio de su transcriptor y representa su interpretación personal de la canción. El material contenido en esta página es para exclusivo uso privado, por lo que se prohibe su reproducción o retransmisión, así como su uso para fines comerciales.

Califica esta canción


Comentarios en Facebook