Enviado por:
anonimo

Callejeros, Frente Al Río

Imprimir
Esta parte entra en 0:09 despues de la viola
-----4-5-7-5-4-5-7-9-7-/
-5-7-------------------/
-----------------------/
-----------------------/
Despues esto entra con la Bateria en el 0:14
---------/
---------/
---------/
-5-3-1---/
En el 0:19... aca hay un compas de 2/4
---------/
---------/
---------/
----3----/
La INTRO va en el 0:20... esta es la parte interesante
de la cancion jeje. Aca combiene escuchar bien el
bajo... se escucha bastante lo q hace Dios
-------------------------------------/
-------------------------------------/
------3-5-55-3------3-55-3------3-55-/
-5-55----------5-55--------5-55------/
Para terminar la intro hace este en el 0:27
-------------------/
-------------------/
-------------------/
-3-33--3-33--------/
El VERSO va en el 0:32... aunque capaz parezca dificil, lo q
hay q hacer es escuchar el tema... si escuchan bien seguro lo
sacan enseguida
------------------------------/
------------------------------/  SE REPITE EN EL 0:41
--------765-55-5--3-2---------/
-5-55555------5-------555-35--/
El ESTRIBILLO q entra en el 0:50 sigue el ritmo de la cancion
escuchen el tema y seguro lo sacan
-9-10-9------------12-9-12-/----------------/-------------------/
--------12-12-10-12--------/-9-97979710-910-/-7-----------------/
---------------------------/----------------/--1010710-7--------/
---------------------------/----------------/-----------91010710/
El fin del estribillo es en el 1:05
------------/-----------/
------------/-----------/
------------/-----------/
-5-53-31-01-/-3-3333----/
SE REPITE DE NUEVO
Intro 1:11
Verso 1:22
Estribillo 1:41

SE REPITE TODO DE NUEVO UNA VEZ MAS
Intro 2:02
Verso 2:13
Estribillo 2:32

AHORA TOCA TODO DE VUELTA OTRAVEZ
Intro 2:52
Verso 3:03
Estribillo 3:22

En el 3:42 toca la Intro y el en 3:54 el FINAL
-------------------
------------2------
--3-2---3-5--------
------5-------5----

Aunque parezca un quilombo es un tema muy facil, lo q tienen
q hacer es escuchar y tocarlo jeje obvio
   Esta tab se la quiero dedicar a Mario mi profesor
de bajo.... fue el el q saco el tema jeje

Cualquier cosa q decir estoy a sus servicio jeje

                                                 FRANCO
Aviso: Este fichero es trabajo propio de su transcriptor y representa su interpretación personal de la canción. El material contenido en esta página es para exclusivo uso privado, por lo que se prohibe su reproducción o retransmisión, así como su uso para fines comerciales.

Califica esta canción


Comentarios en Facebook