Enviado por:
anonimo








No Te Va Gustar, Verte Reir

Imprimir
Hola BAH! este es el tema completo y ordenado
Espero q entiendan todo, apara, avite’.

INTRO(x3)
No se si escuchas… o quizás ya no sirve de nada…
Sólo murmuras… (tipo massi al cantar juá juá)

G-------------------------------
D---77--7-- SILENCIO--44---4----
A-----5--5--------------2---2---
E-------------------------------

No lloraaabaaáas por mí…
(Esto lo hace sólo esta vez,
es un enganche para la parte A)

G----------------------------------------------77---7-
D--77---7----SILENCIO----44---4---SILENCIO--5-5---5---
A-----5---5----------2—2---2---2----------------------
E-----------------------------------------------------

PARTE A (x2)
Dejaste que el doloooor…

G---------------------------6-6---6-7-------
D--------77---7-------4-4-4----4------------
A--5-5-5----5---5---------------------------
E-------------------------------------------

G-------------------------------------------
D---------4-4----4--------------5-5---5-----
A--2-2-2------2----2----------5-----5---5---
E-------------------------3-3---------------

PARTE B (estribillo)
Me encantaría……
G-------------------------------------------
D--4----4-4---4---------4---4-4---4---------
A----4------4---4----2----2-----2---2—------
E-------------------------------------------

G-------------------------------------------
D--------------------------7---7-7----7-5---
A-----7---7-7----7------5----5-----5--------
E--5----5-----5----5------------------------

G-------------------------------------------
D--4----4-4---4---------4---4-4---4---------
A----4------4---4----2----2-----2---2—------
E-------------------------------------------

G--------------------------------------------
D-----------5-5----5----5--5----5-5---5------
A--------5------5----5-------5------5--------
E--3--3--------------------------------------

Después repite esto:
PARTE A (X2,SIN LETRA, CON PUNTEO)
PARTE A (X2 CON LETRA)
PARTE B (x2)

Al final se queda yendo de D(Re) y B(Si) todo el tiempo
haciendo algo así, es como un final para improvisar, esto suena bien:
G-------------- ------------------ -----------------
D-------------- ------------------ -----------------
A--5----5---5-- --5----5------5-5- --5---5-5----5---
E---------7---- ----------7-7----- ----------7------
Suerte……voten y pruébenlaa……saludos a todos los nbos!!chauu
Aviso: Este fichero es trabajo propio de su transcriptor y representa su interpretación personal de la canción. El material contenido en esta página es para exclusivo uso privado, por lo que se prohibe su reproducción o retransmisión, así como su uso para fines comerciales.

Califica esta canción


Comentarios en Facebook