Las Pastillas Del Abuelo, Loco Por Volverla A Ver

Bueno Chicos... esta es la parte de la intro en que suenan los vientos
o bien, es el silvido que hace pity en la version acustica del tema...

Despues de dominarlo... deben adaptarlo al ritmo.



      DO
1|-------------5-8-5---------5---
2|-------5--8---------8-5-8------
3|----5--------------------------
4|-------------------------------
5|-------------------------------
6|-------------------------------


        REm
1|----------5---8--8h12---10--8----
2|-------6-------------------------
3|----7----------------------------
4|---------------------------------
5|---------------------------------
6|---------------------------------

        FA                      DO
1|----------------------------------
2|--5h6--5------5h6-----5-----------
3|---------7--5-----------7--5-(5)--
4|----------------------------------
5|----------------------------------
6|----------------------------------

Aguante las Pastillas...!!!! Saludos Desde Chile...!!!!
Aviso: Este fichero es trabajo propio de su transcriptor y representa su interpretación personal de la canción. El material contenido en esta página es para exclusivo uso privado, por lo que se prohibe su reproducción o retransmisión, así como su uso para fines comerciales.

Califica esta canción


Comentarios en Facebook