Enviado por:
anonimo

Callejeros, Parte Menor

Imprimir
Callejeros - Parte Menor

INTRO: (E Am D G F)
e|---------------------------------------|
B|---------------------------------------|
G|----9-----------------7----------------|
D|--7---9-10-9-7-7---7----7-9-7------10--|
A|-------------------------------10------|
E|---------------------------------------|



---------------------------------------------------------------------------



D# - F - D# - F
Vuelvo a ser esclavo,vuelvo a despertar. La noche de anoche me dejó sin gas
D# - F
y ese reloj de mierda que ya empieza a pelear


e|------------------------------|
B|------------------------------|
G|--(3)------------[PM]---------|
D|--(3)-----------------7-8-10--|
A|--(3)-------------8-8---------|
E|--(1)-------------------------|
...........con mi tiempo



---------------------------------------------------------------------------


RAPIDO!
e|-----------------------------------------------------------------|
B|-----------------------------------------------------------------|
G|--7------------7------------7-------------7-7-7-10---------------|
D|-----10-8-8-8-----10-8-8-8----10-8-8-8---8---------10--8-7-------|
A|-----------------------------------------------------------10-8--|
E|-----------------------------------------------------------------|
A# - F
Miro hacia el techo, miro hacia el piso y en la guitarra no encuentro más
que desperdicios, de otra canción.





e|------------------------------------------------------|
B|------------------------------------------------------|
G|--9-9-9-9-7------9~~9-7-------9~~9-7------------------|
D|------------10----------10-----------10-10-10-10-9-7--|
A|------------------------------------------------------|
E|------------------------------------------------------|
Am      C           Am          C
Y me levanto igual, igual como lo hice ayer,
Am               C                 Dm
con la vena de perder la alegría de a poco




e|---------------------------------------|
B|---------------------------------------|
G|----9-----------------7----------------|
D|--7---9-10-9-7-7---7----7-9-7------10--|
A|-------------------------------10------|
E|---------------------------------------|
  E      Am       D      G       F
como una roca que se erosiona y cae



---------------------------------------------------------------------------



D# - F - D# - F
y salgo corriendo, ya mi tiempo no está. Esta el 91 y la General Paz
D#-F
Ahora, soy empleado de la Capital


e|------------------------------|
B|------------------------------|
G|--(3)------------[PM]---------|
D|--(3)-----------------7-8-10--|
A|--(3)-------------8-8---------|
E|--(1)-------------------------|
F
de este infierno



---------------------------------------------------------------------------


RAPIDO!
e|-----------------------------------------------------------------|
B|-----------------------------------------------------------------|
G|--7------------7------------7-------------7-7-7-10---------------|
D|-----10-8-8-8-----10-8-8-8----10-8-8-8---8---------10--8-7-------|
A|-----------------------------------------------------------10-8--|
E|-----------------------------------------------------------------|
A#
Y llego hasta el Centro que es todo protesta, el excluído reclama
y el Congreso que apesta,
                                        F
y yo sólo quiero patear al sistema hacia otro lugar.





e|------------------------------------------------------|
B|------------------------------------------------------|
G|--9-9-9-9-7------9~~9-7-------9~~9-7------------------|
D|------------10----------10-----------10-10-10-10-9-7--|
A|------------------------------------------------------|
E|------------------------------------------------------|
Am          C            Am            C
Pero, hoy ficho igual. igual, como lo hice ayer
 Am               C                   Dm
con la vena de ser parte menor de este todo




e|---------------------------------------|
B|---------------------------------------|
G|----9-----------------7----------------|
D|--7---9-10-9-7-7---7----7-9-7------10--|
A|-------------------------------10------|
E|---------------------------------------|
    E      Am       D        G      F
que no me cierra y que me encierra mal



---------------------------------------------------------------------------



SOLO: (saxo-guitarra)
e|---------------------(3)------------------------------------------------|
B|---------------------(3)---------------------------13h12------10-8------|
G|----------8--8-8h9---(4)----------5-4-5-7~~10~~---------12-12------9-9--|
D|--10-9-10------------(5)--5-7-5-7---------------------------------------|
A|---------------------(5)------------------------------------------------|
E|---------------------(3)------------------------------------------------|

e|------------------------------------------------------------------------|
B|----8-----------------------------------8-------------------------------|
G|------10-9h10h9---10h9-------10h9-----------10~~--13-12-10--------------|
D|--7-------------------------------12-12---9----------------12-10-9-7-5--|
A|----------------------12-12---------------------------------------------|
E|------------------------------------------------------------------------|



---------------------------------------------------------------------------



C - Am
Termina el día y en el cuadro del vidrio
Fm - Am
del '60' hasta Constitucion
Dm
veo la lluvia cayendo con furia
G - F - Fm - G
vaciando las calles, cambiando nuestro odio de color



---------------------------------------------------------------------------




(El solo de fondo)
C - Am
la madrugada me ve solo en la mesa
Fm - C
viendo al mundo por televisión
Dm
no cambió nada y vuelvo a la cama
G - F
pensando que tal vez mañana
Fm - G - C
todo será un poco menos peor que hoy.





Un saludo para los pibes de Nsn
aguante callejeros, que se haga justicia por los pibes
espero que les sirva, es bien a Oido
Nsn. eLio
Aviso: Este fichero es trabajo propio de su transcriptor y representa su interpretación personal de la canción. El material contenido en esta página es para exclusivo uso privado, por lo que se prohibe su reproducción o retransmisión, así como su uso para fines comerciales.

Califica esta canción


Comentarios en Facebook