Enviado por:
anonimo

Los Piojos, Esquina Libertad

Imprimir
Buen tema de los piojos... sus recitales son muy buenos,
gracias por su musica...

INTRO:
   (E)          (G)      (E)         (G)
e|--0--0000000---33333----0-0000000---33333---------
B|--0--0000000---33333----0-0000000---33333---------
G|--1--1111111---00000----1-1111111---00000---------  (x6)
D|--2--2222222---00000----2-2222222---00000---------
A|--2--2222222---22222----2-2222222---22222---------
E|--0--0000000---33333----0-0000000---33333---------

Se repite en las estrofas

G|-----------12-10-9-----------------------------------------
D|-12~~~~~~~~--------12~~~~~~~~~-9---9---9-10-9--------------
A|---------------------------------9---9--------9~~~~~~~~~---
E|-----------------------------------------------------------

G|-----------10b-12-10-9---------------------------------------
D|--12-11-12-------------12~~~~~~~-9---9---9-10-9--------------
A|-----------------------------------9---9--------9~~~~~~//----
E|-------------------------------------------------------------
                                              Desciende varios trastes

Esquina Libertad
Envido y truco del tiempo
A usted le toca jugar
No haga parda y corte viento

Rige tu luna para mi tres
sangre en la copa y adentro
un rocandombe tenés
Palazzo rompe lamento.

ESTRIBILLO
   (C)                   (A)
e|--0--0000000---00000----0--0000000---00000---
B|--1--1111111---11111----2--2222222---22222---
G|--0--0000000---00000----2--2222222---22222---
D|--2--2222222---22222----2--2222222---22222---
A|--3--3333333---33333----0--0000000---00000---
E|--0--0000000---00000----0--0000000---00000---

                                Chevere, chevere

e|--------------------(otra guitarra)---------------------
B|-------------------------------7--8-9-10----------------
G|--99999999-/99999999-/99999999--------------------------
D|--------------------------------------------------------
A|--------------------------------------------------------
E|--------------------------------------------------------

    Chevere, chevere

e|--------------------------------------------------------
B|--------------------------------------------------------
G|--99999999/99999999/99999999---7------------------------
D|---------------------------------7-5-7-5----------------
A|--------------------------------------------------------
E|--------------------------------------------------------



Nueva revolución
nueva sangre, nueva mente
lo que se pierde, ya se perdió
y no me seques la frente
Guevara Guevara Guevara Guevara
Guevara en mi remera de Dior
el che era argentino
y murió en Vietnam
ya lo dije “déjatela
la chiva te hace guerrero”.

Chevere chevere
Chevere chevere

Bm               D
  Larga calle de Libertad
Bm                   D
  tantas curvas te siento
C                    Bm
  vi encerrando un ombú gritar
C                      D
  el ombú que da el tiempo.

No hay carteles para saber
cual será tu sendero
como la arena debe ser
como el aire de enero.

G|-----------12-10-9-----------------------------------------------------
D|-12~~~~~~~~--------12~~~~~~~~~-9---9---9-10-9--------------------------
A|---------------------------------9---9--------9~~~~~~~~~---------------
E|-----------------------------------------------------------------------

G|-----------10b-12-10-9-------------12----------------------------------
D|--12-11-12-------------12~~~~~~~-12-----12---10---8/9-----8///9--------
A|-------------------------------------999--999--999----9-9--------------
E|-----------------------------------------------------------------------


Esquina del espiral
no me esperes no me esperes
no me esperas ya vendrás
nunca del todo se puede escapar, aúh !...
mientras la sombra
te siga detrás.

Larga calle de Libertad
tantas curvas te siento
como la arena debe ser
como el aire de enero.

Chevere, chevere
Chevere, chevere



Besos para Vicky que la amo con mi alma, y a Camila. VAMO TAMOS EN 3°!!
Aviso: Este fichero es trabajo propio de su transcriptor y representa su interpretación personal de la canción. El material contenido en esta página es para exclusivo uso privado, por lo que se prohibe su reproducción o retransmisión, así como su uso para fines comerciales.

Califica esta canción


Comentarios en Facebook