Enviado por:
anonimo

Bersuit Vergarabat, El Viento Trae Una Copla

Imprimir
  1)

    1---------------------------------------------------
    2-----3---3---3---3---3---3---3---3-----------------
    3----2---2---2---2---2---2---2---2------------------
    4---0---0---0---0---0---0---0---0-------------------
    5---------------------------------------------------
    6---------------------------------------------------

  2)
    1--------------------------------------------------
    2---2---2---2---2---2---2---2---2------------------
    3--2---2---2---2---2---2---2---2-------------------
    4-0---0---0---0---0---0---0---0--------------------
    5--------------------------------------------------
    6--------------------------------------------------

  3)
    1--------------------------------------------------
    2-----1---1---1---1---1---1---1---1----------------
    3----2---2---2---2---2---2---2---2-----------------
    4---0---0---0---0---0---0---0---0------------------
    5--------------------------------------------------
    6--------------------------------------------------

  4)
    1----------------------------------------------------
    2-----3---3---3---3---3---3---3---3------------------
    3----0---0---0---0---0---0---0---0-------------------
    4----------------------------------------------------
    5----------------------------------------------------
    6---3---3---3---3---3---3---3---3--------------------

  5)
    1----------------------------------------------------
    2------2---2---2---2---2---2---2---2-----------------
    3-----2---2---2---2---2---2---2---2------------------
    4----------------------------------------------------
    5---0---0---0---0---0---0---0---0--------------------
    6----------------------------------------------------








   D
El viento trae una copla ,

   F#m
recuerdos del huracán
         C9
que un día me partio un ala ,
      G
y me hizo caer ,
       A
hasta que me arrastré

     D
Nuestra bandera flameaba
    F#m
en medio del temporal
     C9
Del norte el frío mataba,
         G
se hizo dura la piel,
       A
el terror fue la ley.


Estribillo:
G                   A
  Y no olvidé nada,
                   G
que plantamos ilusión
                 A
en la pampa mojada
                 G        Bb
que sudaba,como yoooooooo,
                  D
inevitable ausencia.

-en el estribillo repite la tablatura : 4 5  hasta el Bb

Y no me saqué el anillo,
ni el cielo, la cruz del sur,
ni mi titilar de grillo,
que por las noches canta,
porque extraña su amor.

Y sigo lavando copas
de gente mejor que yo;
si puedo, bebo las sobras:
el mezcladito me enciende.

Estribillo:

Y me pongo loco,
fantaseo con el mar
de irme nadando,
de volverte a tocar.

Y me pongo manco,
manos de inutilidad,
deje allá mi sangre,
y hoy me tengo que inventar
SI soy argentinooo
Lelelele...  (D F#m C9 G A)

final: Bb C9 D

we.. esperoo que les sirva
Aviso: Este fichero es trabajo propio de su transcriptor y representa su interpretación personal de la canción. El material contenido en esta página es para exclusivo uso privado, por lo que se prohibe su reproducción o retransmisión, así como su uso para fines comerciales.

Califica esta canción


Comentarios en Facebook