Enviado por:
anonimo

Reik, Llegó Tu Amor

Capo en el 4to traste

 Asi es el arpegio para q suene como el piano
 Esto se repite en el intro, en todas las estrofas.
 y en el intermedio.


        C          Em         Am          G
 e|----4-7----|-----7----|-----7----|-------4--|---5---|
 B|--------5--|---7---4--|---5---5--|---4-7----|---5---|
 G|-----------|----------|----------|----------|---4---|
 D|-----------|----------|----------|----------|---4---|
 A|--7--------|-6--------|-4--------|----------|---6---|
 E|-----------|----------|----------|-3--------|---7---|

       C          Em         Am          G
 e|----4-7----|-----7----|-----7----|---5---|
 B|--------5--|---7---4--|---5---5--|---5---|
 G|-----------|----------|----------|---4---|
 D|-----------|----------|----------|---4---|
 A|--7--------|-6--------|-4--------|---6---|
 E|-----------|----------|----------|---7---|


C   Em     Am
 Llego tu amor
   G         C     Em     Am   G
 y en un instante me atrapo.
C  Em     Am   G        C    Em    Am    G
 Sin preguntar sin un aviso quiso entrar
C          Em       Am        G
 al fondo de este corazón herido,
C           Em        Am      G
 que ahora siente con cada latido.
C   Em     Am  G   D                               F
 Oigo una voz diciéndome que todo va a estar muy bien,
             G       C
 que no lo deje escapar.

Coro:
     G     F
 Siento volar
    F - G     C
 cuando estas tu.
      G    F   F - G    Am
 Siento tocar el cielo azul
       D   G         C
 Sin duda todo es por ti
     G       F
 Quiero alcanzar
  F - G    C
 lo que soñé.
    G      F
 Quiero besar
  F - G     Am     D   Am   D     F
 lo que anhele, no hay mas que decir.
   Fm                C - Em - Am - G [x2]
 Me he enamorado de ti

C    Em    Am
 Llego tu amor
 G           C      Em   Am    G
 Y me hizo fuerte en el dolor
C     Em   Am
 Sin preguntar
   G         C   Em   Am   G
 Sin pedir nada me curo
C          Em         Am     G
 El fondo de este corazón herido
C          Em         Am     G
 Que ahora vive con cada latido
C     Em   Am   G    D                            F
 Oigo una voz diciéndome que todo va a estar muy bien
           G         C
 que no lo deje escapar


Coro: [aki puede ser con rasgeo pero suave]

     G     F
 Siento volar
    F - G     C
 cuando estas tu.
      G    F   F - G    Am
 Siento tocar el cielo azul
       D   G         C
 Sin duda todo es por ti
     G       F
 Quiero alcanzar
  F - G    C
 lo que soñé.
    G      F
 Quiero besar
  F - G     Am     D   Am   D     F
 lo que anhele, no hay mas que decir.
   Fm               Arpegio: C - Em - Am - G - C.
 Me he enamorado de ti
Aviso: Este fichero es trabajo propio de su transcriptor y representa su interpretación personal de la canción. El material contenido en esta página es para exclusivo uso privado, por lo que se prohibe su reproducción o retransmisión, así como su uso para fines comerciales.

Califica esta canción


Comentarios en Facebook