Enviado por:
anonimo








No Te Va Gustar, Tenés Que Saltar

Imprimir
El acorde Sim b ó Lam # que se hace en esta canción es así:

e|-6-|
B|-6-|
G|-6-|
D|-8-|
A|-8-|
E|-6-|

* cuando tocas ese acorde hay que hacer un estilo de ligadura
para arriba muteando las cuerdas
* todos los acordes solo se tocan una vez, y precisamentedonde
se indica. No se rasguea a excepción del estribillo.


* Riff 1:

e|------------------------------------------|
B|------------------------------------------|
G|------10---------9----------/8------------|
D|------10---------9----------/8------------|
A|-------8---------7----------/6------------|
E|------------------------------------------|



INTRO: Trompetas, Trombón, etc.



SIm B             SIm B
     Puedo ser yo
                   SIm B
     Puede ser otro
SIm B            SIm B
     Una vez más      solo...
SIm B             SIm B      SOL#
     una vez más...


ESTRIBILLO:

                 SIm B
Tenés que saltar
DO#  SOL#    RE#   SIm B
Ah...ah...
DO#  SOL#  SOL#  SOL#
Ah...ah...
                   SIm B
Tenés que saltar...

INTRO: Trompetas, Trombón, etc.

SIm B    Riff 1
     Vos elegís
SIm B SOL #    SIm B  Riff 1
     1,2,3 salidas
SIm B SOL #    SIm B  Riff 1
     Yo no se cual        solo...
SIm B SOL#      SIm B  Riff1
     Que no se cual...



ESTRIBILLO:


                SIm B
Tenés que saltar
DO#  SOL#    RE#   SIm B
Ah...ah...
DO#  SOL#  SOL#  SOL#
Ah...ah...
                   SIm B
Tenés que saltar...


* este solo va con efecto (wuah wuah)
* en las partes que hay que estirar la cuerda le marque un *

Solo:
|------6-------------------------------------------------------------|
|---(6)--9-6----------------------------------------------9-/10-/-11*|
|-8*--------8*-6h8h6-8*-666-8-8*-6h8-6---------------8/10------------|
|--------------------------------------8h6h8-/10-/11-----------------|
|--------------------------------------------------------------------|
|--------------------------------------------------------------------|



|--------------------------------------------------------------------|
|--11**-9h11--11*-9h11--11**-9h11--11*-9h11--11**-9h11--11*-9h11-11h9|
|--------------------------------------------------------------------|
|--------------------------------------------------------------------|
|--------------------------------------------------------------------|
|--------------------------------------------------------------------|
|---------------------------------------------------------|
|---------------------------------------------------------|
|---10h9-/8----6/5--5h6h5----------5---6------------------|
|-------------------------(3)------5---6---8--------------|
|----------------------------------3---4---8--------------|
|------------------------------------------6--------------|

SIm B    Riff 1
     Una canción
SIm B SOL#                 SIm B Riff 1
     Que te saque de la duda
SIm B SOL#    SIm B Riff 1
     No la hay,       solo...
SIm B SOL#       SIm B Riff 1
     Que no la hay...

ESTRIBILLO

INTRO

FIN

* el solo tiene sus errores no esta del todo perfecto al igual
 que la canción pero sirve como base para empezar a sacarla
Aviso: Este fichero es trabajo propio de su transcriptor y representa su interpretación personal de la canción. El material contenido en esta página es para exclusivo uso privado, por lo que se prohibe su reproducción o retransmisión, así como su uso para fines comerciales.

Califica esta canción


Comentarios en Facebook