Enviado por:
anonimo

Soda Stereo, 1990

Imprimir
La transcripcion de guitarra de Jorge esta medio paso baja, asi que esta es
mi transcripcion del bajo.

Intro:

G -----------------------------------------------------
D -------2/slide/4-4---6/8-8--------2/4-4---6/8-8--------
A ----4------------------------4-----------------------
E --2------------------------2-------------------------

G ----------------------------------------------------
D ----------------------------------------------------
A -8-6-888-6----8-6-888-6-----------------------------
E -----------8------------8---------------------------

Se repite durante el verso..

Coro:

G -----------------------------------------------------
D-----------------------------------------------------
A --666-444------------666-444/8-8-9-------------------
E ----------7-6-44-------------------7-4-2-vuelta al ritmo del verso

La parte de "Naturaleza insaciable..."

G -----------------------------------------------------
D -----------------------------------------------------
A -----------------------------------------------------
E --6666-4444-222222-1111---6666-4444-2222-1111--------

E --66666-22222-7777-6---5-4-2--vuelta al ritmo del verso-----

Espero que les guste, tremenda cancion, voy a ver si le saco la guitarra
despues, escuchenla para entender el ritmo y ya esta. =)
Aviso: Este fichero es trabajo propio de su transcriptor y representa su interpretación personal de la canción. El material contenido en esta página es para exclusivo uso privado, por lo que se prohibe su reproducción o retransmisión, así como su uso para fines comerciales.

Califica esta canción


Comentarios en Facebook