Acordes y tablaturas para guitarra

Acordes y Tablaturas
Usuario: Password:

Buscar:
Acordes y Tablaturas >> Letra C >> Acordes de Chancho en piedra >> Disco japi
Tablatura de Disco japi, Chancho en piedra

Disco japi

Chancho en piedra






Guia de acordes:

    Mim7  Lam  La#m   Sol   Re5   Sim
E|---7--|--5--|--6--|--3--|-----|--7--|
B|---8--|--5--|--6--|--3--|-----|--7--|
G|---7--|--5--|--6--|--4--|--5--|--7--|
D|---9--|--7--|--8--|--5--|--5--|--9--|
A|---7--|--7--|--8--|--5--|--7--|--9--|
E|---X--|--5--|--6--|--3--|-----|--7--|

La cancion tiene dos guitarras, la base en canal limpio con un poco de distorción,
la segunda con distorción tipica de los Chancho en Piedra.

Intro:

E|-----------|
B|-----------|
G|-----------|
D|-----------|
A|-----------|
E|--3h5--3---|

Verso 1:

Mim7
Cuando crecí recién algo yo comprendí
Cada uno en su propio juez
Nada sacamos con discutir y criticar
Al condenar sin averiguar

Guitarra de fondo:
E|--7-7-7-x-7-x-7-x-7-7/6--|  x8
B|--8-8-8-x-8-x-8-x-8-8/7--|
G|--7-9-7-x-7-x-7-x-7-7/6--|
D|--9-9-9-x-9-x-9-x-9-9/8--|
A|--7-7-7-x-7-x-7-x-7-7/6--|
E|---x---x---x---x-----------|


Pre-Coro 1:

Lam                              Lam-La#m
Hay que juzgar lo que uno hace mal
Sim                 Re5
y no escupir encima de lo que hacen los demás.

NOTA PARA PRE-CORO:
Cuando esta el cambio de Lam a La#m, solo es un cambio rapido, o osea,
que el La#m se toca una vez, no se continua rasgeando.

Coro:

Mim7                   Lam
Quisiera alejar........en este segundo
  Mim7                  Lam
Lo mal intencionado.....de este lugar
Mim7                   Sol
Que quiere derribar lo que hemos hecho
Lam
Durante años.

Intermedio:
Mim7

Verso 2:

Mim7
Mi creación es un mundo....totalmente nuevo
Otro universo, otro lugar....totalmente nuevo
No se puede analizar en forma convencional
Lo sabes bien, mi arte no compite

Lam                         Lam-La#m
Voy a buscar mi propia verdad
Sim                     Re5
Sin importarme el gusto de los demás

Coro 2:

Mim7                   Lam
Quisiera alejar........en este segundo
  Mim7                  Lam
Lo mal intencionado.....de este lugar
Mim7                   Sol
Que quiere derribar lo que hemos hecho
Lam
Durante años.

Interludio: (Con distorcion)

E|----------------------|----------------------|----------------------|
B|----------------------|----------------------|----------------------|
G|----------------------|----------------------|----------------------|
D|-9-7------------------|-9-7------------------|-9-7------------------|
A|-----10-7----7-10-7---|-----10-7----7-10-7---|-----10-7----7-10-7---|
E|----------10----------|----------10----------|----------10----------|

Entre cada compas tocar E(6°)|-0-0-0-0-0|, mientras se canta

E|---------------------------------------------|
B|---------------------------------------------|
G|---------------------------------------------|
D|--9-7----------------------------------------|
A|------10-7----7-10-7-------------------------|
E|-----------10--------10-7-10-7-5-3-0-0-0-0-0-|

Si criticas lo que hago es un error
En vez de analizarme haz algo mejor
Solo conoce la verdadera intención
El propio autor


Solo de bajo

Verso 3:

Mim7                         Lam   La#m   Lam        Mim7
Es fácil decir que eso esta malo y no hacer algo mejor,
Mim7                         Lam    La#m   Lam         Mim7
Es fácil esconderse entre la gente y no gritarlo de frente


Solo guitarra:


    Mim7          Lam   Lam#  Lam       Mim
E|--------------------|---------------------|
B|--------------------|---------------------|
G|------7---7h9~------|------7---7h9~-------|
D|--7h9---9------9-7--|--7h9---9------9-7---|
A|--------------------|-------------------7-|
E|--------------------|---------------------|

Entre el solo y el ultimo coro se toca Lam y Sol 4 veces.

Coro 3: (x4)

Mim7                   Lam
Quisiera alejar........en este segundo
  Mim7                  Lam
Lo mal intencionado.....de este lugar
Mim7                   Sol
Que quiere derribar lo que hemos hecho
Lam
Durante años.

Final:

E|----------------------|----------------------|----------------------|
B|----------------------|----------------------|----------------------|
G|----------------------|----------------------|----------------------|
D|-9-7------------------|-9-7------------------|-9-7------------------|
A|-----10-7----7-10-7---|-----10-7----7-10-7---|-----10-7----7-10-7---|
E|----------10----------|----------10----------|----------10----------|

E|--------------------------|-----|
B|--------------------------|-----|
G|--------------------------|-----|
D|-9-7----------------------|--2--|
A|--------7-10-7------------|--2--|
E|-----10--------10-7-5-3-0-|--0--|

Dudad y consultas al mail

Saludos a los hermanos marranos de corazón
VIVA CHILE MIERDA Y LOS CHANCHO EN PIEDRA

Fuente original: LaCuerda
Colaborador original: Cristián Carrizo [[email protected]]

Que te parecio? Calificalo con estrellas!!

Rating: 3.6/10 (25 votos)

Este fichero es trabajo propio de su transcriptor y representa su interpretación personal de la canción. El material contenido en esta página es para exclusivo uso privado, por lo que se prohibe su reproducción o retransmisión, así como su uso para fines comerciales.


Deja tus comentarios:

Letras de Chancho en piedra
Letras de canciones | Musica Independiente