Enviado por:
anonimo








Canciones Populares, Camino A San Francisco

Imprimir
Esta es mi primer transcripción, espero les sea de su agrado...
Es la version que yo saqué de oido, con unos arreglitos mios,
sepan disculpar si hay errores...
el tono base, es Sim.

e)|-------------------------------
B)|-------------------------------
G)|-------------------------------
D)|------4-4-4-2-0-2-0------------
A)|--2-2---------------2--2-0-2---
E)|-2-----------------------------

e)---------------------------------------|
B)---------------------------------------|
G)---------------------------------------|
D)---------------------------------------|
A)-2-4-2-4/5-5-5-5/7-5-4--4-4-2-0-2---0-2|
E)-----------------------------------2---|

e)|----------------------------------------------
B)|----------------------------------------------
G)|----------11-11-11-11-9-7-11-9-7-3/4-3/4-3/4--
D)|--9-9-9-9-------------------------------------
A)|-9--------------------------------------------
E)|----------------------------------------------

e)----------------------------------------------|
B)----------------------------------------------|
G)-4-6-4-6/7-7-7-7/9-7-5/6-6-6-6-4-2-6-4-----2-4|
D)------------------------------------------4---| (2 veces)
A)----------------------------------------------|
E)----------------------------------------------|


e)|-----------------------------|------------------|
B)|-----------------------------|------------------|
G)|-4-6-7-4--7-4-9-6-9-6--------|-11-11-11-9--9-11-|
D)|---------5---5---7---9-7-----|-----------12-----|  (2 veces)
A)|------------------------10-9-|------------------|
E)|-----------------------------|------------------|


e)|-------------------------------------------------------------|
B)|-------------------------------------------------------------|
G)|-4-4-4-6-6/7-6/7-6/7-6/7-7/9-7-5/6-5/6-5/6-5/6-4-2-6-4---2-4-|
D)|--------------------------------------------------------4----|
A)|-------------------------------------------------------------|
E)|-------------------------------------------------------------|


e)|--5-7-5-7--14-14-14-14-12-10/12-10-7--7-5-7--
B)|-7-------------------------------------------
G)|---------------------------------------------
D)|---------------------------------------------
A)|---------------------------------------------
E)|---------------------------------------------


e)-7-9-7-9/10-10-10-12-10-8/9-9-9-7-5-7|
B)-------------------------------------|
G)-------------------------------------| (2 veces)
D)-------------------------------------|
A)-------------------------------------|
E)-------------------------------------|

e)|-7-7-7-9-10-7-10-7-10/12-9--12-9----------|14-14-12--12-14|
B)|-------------8----8-------10----12-10-----|--------15-----|
G)|-------------------------------------12-11|---------------|(x2)
D)|------------------------------------------|---------------|
A)|------------------------------------------|---------------|
E)|------------------------------------------|---------------|


e)-7-7-7-9-9/10-10-10-10-12-10-8/9-9-9-9-7-5-9-7|
B)----------------------------------------------|
G)----------------------------------------------|
D)----------------------------------------------|
A)----------------------------------------------|
E)----------------------------------------------|


en esta parte, cada nota se toca muchas veces lo mas rapido posible

e)------14-12-10-12-10-7-9-10-12-10-9-7-5-7--9-10--12-10-9-7-5-7-
B)----12---------------------------------------------------------
G)-11------------------------------------------------------------
D)---------------------------------------------------------------
A)---------------------------------------------------------------
E)---------------------------------------------------------------

e)--9-10-12-10-9-10-12-14--------19----|
B)-------------------------------19----|
G)-------------------------------19----| Fin
D)-------------------------------------|
A)-------------------------------------|
E)-------------------------------------|




Esta cancion va dedicada a mi novia Clau, y a mi viejo!!!
Aguante Grupo Señales!!! cualquier duda [email protected]
Aviso: Este fichero es trabajo propio de su transcriptor y representa su interpretación personal de la canción. El material contenido en esta página es para exclusivo uso privado, por lo que se prohibe su reproducción o retransmisión, así como su uso para fines comerciales.

Califica esta canción


Comentarios en Facebook