Acordes y tablaturas para guitarra

Acordes y Tablaturas
Usuario: Password:

Buscar:
Acordes y Tablaturas >> Letra C >> Acordes de Catupecu machu >> Refugio
Acordes de Refugio, Catupecu machu

Refugio

Catupecu machu






G# _C#


   Punteito
         A#m
      E -----------------------------
      B --2-5--4----4-5--4--2-----
  ×2  G ----------------------------
      D ----------------------------
      A ----------------------------
      E ----------------------------

A#m
   Algún refugio habrá
F#7add11                    F#7sus4b9
   Para ocultarme de esta feroz tormenta
         G#                   D#
   De preguntas, de respuestas  Heeey.

A#m
   No se a quien preguntar
   O si talvez callar, o viejos sitios visitar,
   O mantenerme quieto, cerrar los ojos y llegar a ver
      F#7add11                     G #
   El manto el manto cubriendooooooteeeei,
      A#m
   Te vi., me vi.

   Punteito ×2

A#m
   Y fuimos juntos contemplando el silencio,
            F#7add11                        F#7sus4b9
   Buscando una y cientos de veces entre el río y el mismísimo mar.
 G#                         D#
   Y fueron las lluvias, su agua y los vientos
      A#m
   Viajando, jugueteando, erosionando,
   Y hoy somos rocas y mañana arenas.
   Bañados por las aguas de este mismísimo mar
F#7add11                             G#
   De miedos, no quiero volver atrás quiero encontrar las fotos,
   el tiempo

         A#m
   Sobre veces pasadas, recientes, lejanas
   En tiempos de furia y de calma
                               F#7add11   F#7sus4b9
   Soy lo que me espera allá espérame allá
                             G#           D#           C#
   Hoy mi deseo es poder deseaaaaaaaaaaaaaaaaaaaaaaaaaaarte.
             F#7add11
   Que estés bien donde quiera que

Estés                                                que   estés  bien, que estés bien
G -------------------------0----------------------0-------------------
D --------3----------4-----------4---------4-------------------------
A -----3-----3----------0-----0----0----------0---------------------
E --1-------------2---------------------2------------2-----3------3--



Acordes no convencionales.

      F#7add11 F#sus4b9
E ----0-------------0------
B ----0-------------0------
G ----3-------------0------
D ----4-------------4------
A ----4-------------4------
E ----2-------------2------


Saludos a todos los KatuPquianos. Espero que la puedan sacar bien. Dudas, comentarios
[email protected] .En El oEsTE EsTa El AGitE

Fuente original: LaCuerda
Colaborador original: Maximiliano Dotti [[email protected]]


Que te parecio? Calificalo con estrellas!!

Rating: 3.9/10 (39 votos)

Este fichero es trabajo propio de su transcriptor y representa su interpretación personal de la canción. El material contenido en esta página es para exclusivo uso privado, por lo que se prohibe su reproducción o retransmisión, así como su uso para fines comerciales.


Deja tus comentarios:

Letras de Catupecu machu
Letras de canciones | Musica Independiente