Acordes y tablaturas para guitarra

Acordes y Tablaturas
Usuario: Password:

Buscar:
Acordes y Tablaturas >> Letra C >> Acordes de Catupecu machu >> Puedes
Tablatura de Puedes, Catupecu machu

Puedes

Catupecu machu






Y algo estallaba en el medio si estabas vos... (no se toca nada)


E------|
B--9---|
G--10--|
D--11--|    Va subiendo el volumen tocando este acorde... 
A--11--|
E------|


Hoy hablas de que todo esta muerto...

E------------------|
B--9---9---9---9---|
G--10--10--10--10--|
D--11--11--11--11--| 
A--11--11--11--11--|
E------------------|

  1er solo
E------------------------------------------------------
B--------------------------16b-16b-----------------14--
G--14---------13-14-14-13-----------13-14-14-14/17-----
D-----15-----------------------------------------------
A--------16--------------------------------------------
E------------------------------------------------------

  cont...
E----------------------------------------------------|
B-------------------------16b-16b-16b------------16b-|
G--14--------13-14-14-13------14b------13-14-13------|
D-----15---------------------------------------------|   
A--------16------------------------------------------|
E----------------------------------------------------|

Puedes tu morirrrrrrrrr..... (no se toca nada)

  Puedes llenar la pared de recuerdos  o empezar a brotar  aunque sea en invierno
E------------------------------------------------------------------------------------|
B------------------------------------------------------------------------------------|
G------------------------------------------------------------------------------------|
D--4--4--4--4--4--4--4--4--4--4--4--4---------3--3--3--3--3--3----------------4--4---|
A--4--4--4--4--4--4--4--4--4--4--4--4---------3--3--3--3--3--3----------------4--4---|
E--2--2--2--2--2--2--2--2--2--2--2--2---------1--1--1--1--1--1----------------2--2---|

  
SOLO DE BAJO


   Puedes tu morir...
E------------------------|
B--9---9---9---9---------|
G--10--10--10--10--------| (sigue el mismo acorde hasta "puedes llenar
D--11--10--10--11--------|  la pared de recuerdos")
A--11--11--11--11--------|
E------------------------|


  SEGUNDO SOLO/FINAL
E---------------------------------------------------------------------
B-------------------------16b--16b--16b-16b--14-----------------------
G--14--------13-14-14-13-------14b------------------13-14-14-13-14----
D-----15--------------------------------------------------------------
A--------16-----------------------------------------------------------
E---------------------------------------------------------------------
  cont...
E-------------------------------------------------15----|
B----------------18-------------------18---16b----16----|
G--13-14-14-13--------13-14-14-13-14-------14b----14----|
D-------------------------------------------------------|     
A-------------------------------------------------------|
E-------------------------------------------------------|


  Que estabas esperando...
E--15--|
B--16--|
G--14--|  (se repite el acorde)
D------|    
A------|
E------|

FINAL


  
SI TENES ALGUNA DUDA,COMENTARIO O ARREGLO ESCRIBIME A [email protected]

ICQ nº=94634680

Fuente original: LaCuerda
Colaborador original: Guido Laurito [[email protected]]

Que te parecio? Calificalo con estrellas!!

Rating: 1.9/10 (19 votos)

Este fichero es trabajo propio de su transcriptor y representa su interpretación personal de la canción. El material contenido en esta página es para exclusivo uso privado, por lo que se prohibe su reproducción o retransmisión, así como su uso para fines comerciales.


Deja tus comentarios:

Letras de Catupecu machu
Letras de canciones | Musica Independiente