Las Pastillas Del Abuelo, La Casada

Imprimir
La letra la puse de un tab q ya estaba para quedera
completa.
Como siempre digo escuchen el tema para sacarle el ritmo al solo.


INtro Saxo:

Dm F C Bb (x4)

E-----------------------------------|
B-10--------------------------------|
G-----------9-10---------9-10-9-----|
D----12--12--------10-12--------12--|
A----------------12-----------------|
E-----------------------------------|

E------------------10---------------|
B-10-----------------13-10----------|
G-----------9-10----------12--10----|
D----12--12---------------------12--|
A-----------------------------------|
E-----------------------------------|


Dm             F  C          Bb
Ella ganaba bien, como telefonista,
Dm           F   C         Bb
yo laburaba mal, y ganaba peor.
Dm                  F     C                   Bb
Yo tenía el primer papel,  ella era protagonista,
Dm                  F     C                Bb
de la historia más triste de todas las de amor.



F               C      Bb            Dm
La fiché desde lejos, moviendo su cintura,
F                 C      Bb
y al ritmo de su cuerpo mi mirada bailó
F                C     Bb                 Dm
se rompían los espejos reflejando su hermosura
F                C      Bb              C
se rompían los esquemas de mi pobre corazón.


intro saxo:

Dm F C Bb (x4)


Dm             F           C          Bb
"Dichoso si es que existe el dueño de esta perla,
Dm             F          C          Bb
de esta obra de arte, de esta boca de miel",
Dm             F        C          Bb
le dije y ahí nomás a pesar que existía
Dm             F        C          Bb
ni papel ni biromes: derechito al hotel.


F               C      Bb            Dm
Supe que era casada con problemas de pareja
F               C      Bb
y que no soportaba gente de mal humor,
F               C      Bb            Dm
supe que enloquecía con los besos en la oreja
F               C      Bb            C
que en la cama y desnuda baila mucho mejor.


Solo: [1:50] Dm F C Bb x2

E---------------------8-8----------------------|
B------------------8-----8----------8/10-8-----|
G-7-9-10-9-7-9-10---------9-7-9-10--------9---|
D----------------------------------------------|
A----------------------------------------------|
E----------------------------------------------|

E-------------8----8-----10-10/12-------10-8---------------|
B--------8-10---10---10-----------10p8-------11-10-11-10-8-|
G-7h9-10---------------------------------------------------|
D----------------------------------------------------------|
A----------------------------------------------------------|
E----------------------------------------------------------|

E------------------------------------------------------|
B------------------------------5-6-5---5-6-8-5-6p5-----|
G-12-12-10-10-9-9-7--7-5---5-7-------7-------------7---|
D------------------------7-----------------------------|
A------------------------------------------------------|
E------------------------------------------------------|

E-------5---6---5-----------------8-6-5-------------8--|
B-5-6-8---8---8---8-6-5-5h6p5-5-6------8-6-8-6-5-6--6--|
G---------------------------------------------------7--|
D------------------------------------------------------|
A------------------------------------------------------|
E------------------------------------------------------|


Dm             F        C          Bb
Ella le caía bien a todos mis sentidos,
Dm             F           C          Bb
salvo cuando el marido era el tema de hablar,
Dm             F       C          Bb
cuando su confesión lastimó mis oídos
Dm             F            C          Bb
me dije no la escuches, no te ahogues en su mar.


F               C      Bb            Dm
Yo abrí de par en par las puertas de mi alma
F               C      Bb            Dm
y dejé que saliera mi secreto peor,
F               C      Bb            Dm
disimulando lo triste y conservando la calma
F               C      Bb            Dm
le dije "aunque no creas, estoy buscando amor".

Intro Saxo:
Dm F C Bb (x4)

F               C      Bb            Dm
Nos rendimos los dos a fingir como tontos
F              C        Bb            Dm
que yo era su marido y que ella era mi mujer
F              C          Bb            Dm
pero al cabo de un tiempo yo no quería ser su esposo,
F             C      Bb            Dm
ella quiso volver a ser la dama infiel.


Fm                G#   D#              C#
Ahora ella está feliz, volvió con el idiota,
Fm              G#     D#              C#
yo recorro las calles buscando otra mujer,
Fm                G#    D#             C#
y aprendí que mentirse tiene patas muy cortas
Fm                G#    D#                C#
que siempre la costumbre va a matar al placer,
D#               C#
va a matar al placer.



DEdIcado a la lela¬¬ que le encantaba este tema.!!

agreguen cualquier correccion o consulta:
[email protected]
Salute!
Aviso: Este fichero es trabajo propio de su transcriptor y representa su interpretación personal de la canción. El material contenido en esta página es para exclusivo uso privado, por lo que se prohibe su reproducción o retransmisión, así como su uso para fines comerciales.

Califica esta canción


Comentarios en Facebook