Enviado por:
anonimo

Callejeros, Más Allá

Imprimir
[INTRO] A-Bm x4

e|------|--|----------------------------
B|------|--|-2-------10-10b-7--5brbr-5~-
G|----2-|x7|--4--2----------------------
D|-2h4--|x7|------4---------------------
A|------|--|----------------------------
E|------|--|----------------------------

e|------|--|-------------------------
B|------|--|-2-------10-10b-7--5brbr-
G|----2-|x6|--4--2-------------------
D|-2h4--|x6|------4------------------
A|------|--|-------------------------
E|------|--|-------------------------

e|-5-7-9--5-7-9-7-5----9-7~-5----|--|
B|-----------------7~--------7-7-|--|
G|-------------------------------|x2|
D|-------------------------------|x2|
A|-------------------------------|--|
E|-------------------------------|--|

[VERSO]

A                                         Bm
Las palabras que custodian al miedo ya se van a callar
A                                              Bm
en los libros que nunca lei tal vez te deba buscar
      A                                           Bm
y tu voz, mi amor, todavia a veces suena como un rio sin fé
         A                                  Bm
y en la multitud un alud de alcohol me dejaría sin ley

[PUENTE]

   D             Bm         F#m       A        (A7)       D
Y por favor escuchame si querés esta vez porque necesito verte bien
          Bm           F#m       E             (E7)
y sin tus manos voy cayendo sin red desde esta cuerda de humo

[ESTRIBILLO]

   A                  Bm                C#m
Ni un momento, ni la eternidad, esto va mas allá
            D           Dm
con vos mi alma se volvió a iluminar
A                 Bm                  C#m
sino fuera porque vos estas yo no estaría aca
D-E-F#m           C#m               D    Dm
        desde tus ojos se ve mucho mas...aaahh

[REPITE INTRO DEL SAXO] A-Bm x2

e|-5-7-9--5-7-9-7-5----9-7~-5----|--|
B|-----------------7~--------7-7-|--|
G|-------------------------------|x2|
D|-------------------------------|x2|
A|-------------------------------|--|
E|-------------------------------|--|

[VERSO]

Los afiches a la barra siniestra ya no le sirven mas
y los testigos falsos de la injusticia ya la van a pagar
pero tu voz todavia a veces suena como un rio sin fé
y en la multitud un alud de alcohol me dejaría sin ley

[PUENTE]

Y por favor escuchame si querés esta vez porque necesito verte bien
y sin tus manos voy cayendo sin red, el manco se queda mudo

[ESTRIBILLO]

   A                  Bm                C#m
Ni un momento, ni la eternidad, esto va mas allá
            D           Dm
con vos mi alma se volvió a iluminar
A                 Bm                  C#m
sino fuera porque vos estas yo no estaría aca
    D       E        F#m
misterio, tiempo y verdad...
          C#m               D    Dm
desde tus ojos se ve mucho mas...aaaaaahhhh

[FINAL] A-Bm hasta terminar



cualquier cosa me mandan mail a [email protected]
Aguante el rock n' roll y nada mas,
cuanto tarado que no entiende y te la quiere contar!
Aviso: Este fichero es trabajo propio de su transcriptor y representa su interpretación personal de la canción. El material contenido en esta página es para exclusivo uso privado, por lo que se prohibe su reproducción o retransmisión, así como su uso para fines comerciales.

Califica esta canción


Comentarios en Facebook