Enviado por:
anonimo








Soda Stereo, Sueles Dejarme Solo

Imprimir
PRIMERO AGRADECER A LA MUJER QUE ME DA CUERDA
ME DAN GANAS DE VIVIR, DE HACER ESTAS TABLATURAS

"KATHERIN GONZALEZ"

LOS AGRADECIMIENTOS A ELLA
SI NO FUERA POR ELLA USTEDES NO TENDRIAN TABLATURAS DE ESTA CALIDAD


VI POR AHI UNAS TABS DE ESTE TEMA Y DE OTROS
Y PS ESTOY DECEPCIONADO DE LO QUE MANDAN

POR ESO LA HIZE ESPERO SE LA GOZEN...

SODEROS COMO VAN AQUI LES DEJO ALGO PARA QUE HAGAN BUEN ROCK
UNA TAB QUE QUEDO COMO CERATI

PERFECTA


asi que disfruten


1-------------|
2-------------|
3-------------|
4-------------|
5-------------|
6---sl-12-sl--|

       E   C          D
|---------------------2-2-2--------|
|------0---1-1-1------3-3-3--------|
|------1---0-0-0------2-2-2--2-----|
|------2---2-2-2---2---------0-----|
|------------------3---------------|
|-0-0------------------------------|X5

|----------------------------------|
|------0---------------------------|
|------1---5-------7---------------|
|------2---5-------7---------------|
|----------3-------5---------------|
|-0-0------------------------------|

       E   C          D
|---------------------2-2-2--------|
|------0---1-1-1------3-3-3--------|
|------1---0-0-0------2-2-2--2-----|
|------2---2-2-2---2---------0-----|
|-0-0--------------3---------------|
|-0-0------------------------------|X2



CORO I


  A          B          A       G                    D
|---------------------|---------3-3-3-3-3-3-3-3-3-|--2--|
|------2--------------|------2--3-3-3-3-3-3-3-3-3-|--3--|
|------2------------4-|------2--0-0-0-0-0-0-0-0-0-|--2--|
|------2--------4---4-|------2--------------------|-----|
|-0-0-----------4---4-|-0-0-----------------------|-----|
|------------2------2-|---------------------------|-----|






       E   C          D
|---------------------2-2-2--------|
|------0---1-1-1------3-3-3--------|
|------1---0-0-0------2-2-2--2-----|
|------2---2-2-2---2---------0-----|
|------------------3---------------|
|-0-0------------------------------|X2





|---------------------|---------3-3-3-3-3-3-3-3-3-|--2--|
|------2--------------|------2--3-3-3-3-3-3-3-3-3-|--3--|
|------2------------4-|------2--0-0-0-0-0-0-0-0-0-|--2--|
|------2--------4---4-|------2--------------------|-----|
|---------------4---4-|-0-0-----------------------|-----|
|-0-0--------2------2-|---------------------------|-----|




INTERLUDIO GTR1 & GTR2

|---------------------2-2-2----|------------------2-2-2----------|
|------0---1-1-1------3-3-3----|------0--1-1-1----3-3-3----------|
|------1---0-0-0------2-2-2--2-|------1--0-0-0----2-2-2--2-------|
|------2---2-2-2---2---------0-|------2--2-2-2--2--------0-------|
|------------------3-----------|----------------3----------------|
|-0-0--------------------------|--0-0----------------------------|
|
|--------------0-----------0---|----------------------0----------|
|-----------------0h3---0----0-|--0---------------0--(2)---------|
|--------2f-------------2f-----|-(2)--2-(2)b---------------------|
|------------------------------|---------------------------------|
|------------------------------|---------------------------------|
|------------------------------|---------------------------------|


|-------------------------2-2-2--------|-------------------------|
|--------0-----1-1-1------3-3-3--------|-------0-----------------|
|--------1-----0-0-0------2-2-2--2-----|-------1-----5------7----|
|--------2-----2-2-2---2---------0-----|-------2-----5------7----|
|----------------------3---------------|-------------3------5----|
|--0-0---------------------------------|--0-0--------------------|
|
|-------------------------------------|--------------------------|
|---------0----0----------0-----------|---0----0--------0--------|
|--2f-(2)---2----2--------2f----------|---2----2f-(2)---2f-------|
|-------------------------------------|--------------------------|
|-------------------------------------|--------------------------|
|-------------------------------------|--------------------------|



VERSO II GTR 1 & 2

|---------------------2-2-2--------|
|------0---1-1-1------3-3-3--------|
|------1---0-0-0------2-2-2--2-----|
|------2---2-2-2---2---------0-----|
|------------------3---------------|
|-0-0------------------------------|











|---------------------2-2-2-----|----------------------2-2-2------|
|------0---1-1-1------3-3-3-----|----------0--1-1-1----3-3-3------|
|------1---0-0-0------2-2-2--2--|----------1--0-0-0----2-2-2--2---|
|------2---2-2-2---2---------0--|----------2--2-2-2--2--------0---|
|------------------3------------|------------------3--------------|
|-0-0---------------------------|--0---0--------------------------|
|
|----------0-0-0---0--0-0-0-----|---------------------------------|
|--------7h8-8-8---8--8-8-8-p-7-|--8p7-8p7-8-sl-------------------|
|-------------------------------|---------------------------------|
|-------------------------------|---------------------------------|
|-------------------------------|---------------------------------|



|---------------------2-2-2--------|
|------0---1-1-1------3-3-3--------|
|------1---0-0-0------2-2-2--2-----|
|------2---2-2-2---2---------0-----|
|------------------3---------------|
|-0-0------------------------------|


|---------------------2-2-2-----|----------------------2-2-2------|
|------0---1-1-1------3-3-3-----|----------0--1-1-1----3-3-3------|
|------1---0-0-0------2-2-2--2--|----------1--0-0-0----2-2-2--2---|
|------2---2-2-2---2---------0--|----------2--2-2-2--2--------0---|
|------------------3------------|------------------3--------------|
|-0-0---------------------------|--0---0--------------------------|
|
|----------10-10-10-10-10-10-10-|-10-----10--10-------------------|
|-------sl-12-12-12-12-12-12-12-|-12-----12--12--------12-sl------|
|-------------------------------|---------------------------------|
|-------------------------------|---------------------------------|
|-------------------------------|---------------------------------|
|-------------------------------|---------------------------------|




CORO II

|---------------------|---------3-3-3-3-3-3-3-3-3-|--2--|
|------2--------------|------2--3-3-3-3-3-3-3-3-3-|--3--|
|------2------------4-|------2--0-0-0-0-0-0-0-0-0-|--2--|
|------2--------4---4-|------2--------------------|-----|
|-0--0----------4---4-|-0-0-----------------------|-----|
|------------2------2-|---------------------------|-----|












~-SOLO-~//


|------------------|----------------|-----------------|-----------------|
|-----0------------|-----0----------|-----0-----------|-----0-----------|
|-----1-----5----7-|-----1---5----7-|-----1--5-7------|-----1--5--7-----|
|-----2-----5----7-|-----2---5----7-|-----2--5-7------|-----2--5--7-----|
|-----------3----5-|---------3----5-|--------3-5------|--------3--5-----|
|-0-0--------------|-0-0------------|-0-0-------------|-0-0-------------|
|
|---------15-------|-22-------------|-----------------|------------10---|
|-17~-17-15-15-15-/|-22f22f22-22-22/|-----------7h9-7-|-7------8-101010-|
|------------------|----------------|-7----7----------|-----------------|
|------------------|----------------|-----------------|-----------------|
|------------------|----------------|-----------------|-----------------|
|------------------|----------------|---0-0--0-0------|---0-0-0---------|
                                           P.M.              P.M.


|-----0-----------------|-------0-----------------------------|
|-----0-----------------|-------0-----------------------------|
|-----1-----------------|-------1-----------------------------|
|-----------------------|-------------------------------------|
|--------3-3-3--2-0-----|------------------3-3-3-2-0-2--------|
|-0-0---------------3-2-|---0-0------------------------3-2----|
|
|-----0-----------------|-------12----------------------------|
|-----0-----------------|-------15F-(15)///-------------------|
|-----1-----------------|-------------------------------------|
|-----------------------|-------------------------------------|
|--------3-3-3--2-0-----|-------------------------------------|
|-0-0---------------3-2-|-------------------------------------|




PUENTE. + Gaining distortion GTR4


 E5      C        D/F#          E        C        D/F#
|----------------------------|-------0------------------------|
|----------------------------|-------0---0-0-0-0--------------|
|--------2-2-2-2--2-2-2------|-------1---2-2-2-2--2-2-2-------|
|-2------2-2-2-2--0-0-0------|-------2---3-3-3-3--0-0-0-------|
|-2------3-3-3-3--x-x-x------|--------------------x-x-x-------|
|-0---------------2-2-2------|--0--0--------------2-2-2-------|















SOLO FINAL. GTR1 & GTR3

|-----0---------------|
|-----0---------------|
|-----1---------------|
|---------------------|
|-------3-3-3--0------|
|--0-0------------3-2-|



|------0---------------|------0-----------------|------0---------------|
|------0---------------|------0-----------------|------0---------------|
|------1---------------|------1-----------------|------1---------------|
|----------------------|------------------------|----------------------|
|--------3-3-3-2-0-----|--------3-3-3-2-0-------|--------3-3-3-2-0-----|
|--0-0-------------3-2-|--0-0-------------3-2---|--0-0-------------3-2-|
|
|----------------------|------------------------|----------------------|
|-----------------8//--|--15--15~~~~~~~17-17P15-|-17(17)-17-17~~~(17)/-|
|----------------------|------------------------|----------------------|
|----------------------|------------------------|----------------------|
|----------------------|------------------------|----------------------|
|----------------------|------------------------|----------------------|


|-------0----------------------|------0-----------------|
|-------0----------------------|------0-----------------|
|-------1----------------------|------1-----------------|
|------------------------------|------------------------|
|--------------3-3-3-2-0-------|---------3-3-3-2-0------|
|--0-0--------------------3--2-|--0-0--------------3-2--|
|
|------------------------------|------------------------|
|----------8--------------10---|-----------8-7----------|
|--9----7-9--9---------7-9---9-|-(9)---7-9-----9-7------|
|------------------------------|-------------------9//--|
|------------------------------|------------------------|
|------------------------------|------------------------|

|-----0---------------|
|-----0---------------|
|-----1---------------|
|---------------------|
|-------3-3-3--0------|
|--0-0------------3-2-|















  A5           B5                C5         G5                 D/F#
|------------------------------|-------------------------------|---|
|------------------------------|-------------------------------|---|
|-----2--------------4---------|-----5-------------------------|---|
|--2--2---------4----4---------|--5--5-------5-----------------|-0-|
|--0------------2--------------|--3----------5-----------------|-0-|
|------------------------------|-------------3-----------------|-2-|
|
|------------------------------|-------------7-7-7-7-7-7-7-7-7-|-5-|
|---------8--------------10----|--------8----8-8-8-8-8-8-8-8-8-|-5-|
|--9--7-9----9-------7-9----9--|-(9)-7-9--9--7-7-7-7-7-7-7-7-7-|-7-|
|------------------------------|-------------------------------|---|
|------------------------------|-------------------------------|---|
|------------------------------|-------------------------------|---|


F: full
~ vibrato
// slide largo
P.M. PALM MUTED


gracias totales

cualquier cosa a mi msn me añaden y listo vivo conectado

andres194@msn.com
Aviso: Este fichero es trabajo propio de su transcriptor y representa su interpretación personal de la canción. El material contenido en esta página es para exclusivo uso privado, por lo que se prohibe su reproducción o retransmisión, así como su uso para fines comerciales.

Califica esta canción


Comentarios en Facebook