Enviado por:
anonimo

Los Bunkers, El Necio

Imprimir
hola esta es la primera vez que saco un tema si ay algun problema
en la cancion ya sabran porque.

la cancion empieza asi:

1-----------|---------|-----------------|
2-----------|---------|-----------------|
3-----------|---------|-----------------|
4----2-2-2--|---2-2-2-|----2-2-2-2-2-2--|
5-----2-2---|----2-2--|-----2-2-2-2-2---|
6--0--------|-0-------|--0--------------|

Para no hacer de mi icono pedasos...


1-----5-----------5------3--|
2-----6-----------5------3--|
3-----7-----------7------5--|
4-----7-----------7------5--|
5-----5-----------5------3--|
6---------------------------|
yo no se lo que es el destino
caminando fui lo que fui
alla dios que sera divino

1-----7-------5-----3--|
2-----8-------5-----3--|
3-----9-------7-----5--|
4-----9-------7-----5--|
5-----7-------5-----3--|
6----------------------|
yo me muero como vivi
yo me muero como vivi   LAm
yo me muero comoo vivii!

1----------------|
2----------------|
3----------------|
4----------------|
5-----2-3----3-0-|
6--0-------------|

1----------------|---------------|
2|---------------|---------------|
3|---------------|---------------|
4|---------------|---------------|
5|--------7-5-7--|--------7-5-7--|
6|--0-0----------|--0-0----------|

1----------------------------|
2----------------------------|
3----------------------------|
4----------------------------|
5---------7-5-7-7-5----------|   se repite
6--0-0--------------7-5-3----|   3 veces.

1------------------------|------------------------|
2------------------------|------------------------|
3-------2----------------|------------------------|
4---2-4----4-2-0-2-5-4---|------4-2---------------|
5------------------------|----------5-3--------3--|
6--0---------------------|--0-0----------5-3-0----|

1-----------------------|-------------------------|
2-----------------------|-------------------------|
3-----------------------|-------------------------|
4--------------6--5--4--|------4-2----------------|
5--------------4--3--2--|----------5-3---------3--|
6--0--3-5-3-------------|--0-0----------5-3-0-----|

1-----------------------|-------------------------|
2-----------------------|-------------------------|
3-----------------------|-------------------------|
4--------------6--5--4--|------4-2----------------|
5--------------4--3--2--|----------5-3------------|
6--0--3-5-3-------------|--0-0----------5-3-0--0--|


1--7-------------------------------9-----|
2--8-------------------------------10----|
3--9-------------------------------11----|
4--9-------------------------------11----|
5--7-------------------------------9-----|
6----------------------------------------|
dicen que me arrastraran por sobre rocas

1--7-------------------------------------|
2--8-------------------------------------|
3--9-------------------------------------|
4--9-------------------------------------|
5--7-------------------------------------|
6----------------------------------------|
cuando la revolucion se venga abajo

1--5------------------------6------------|
2--5------------------------6------------|
3--7------------------------8------------|
4--7------------------------8------------|
5--5------------------------6------------|
6----------------------------------------|
y machacaran mis manos y mi boca
y me arrancaran los ojos y el badajo.

1----------7---------------------|
2----------8---------------------|
3----------9---------------------|
4----------9---------------------|
5--------------------------------|
6--------------------------------|
Sera que la necedad pario conmigo

1---------9--------------------7------|
2---------10-------------------8------|
3---------11-------------------9------|
4---------11-------------------9------|
5-------------------------------------|
6-------------------------------------|
la necedad de lo que hoy resulta necio

1----------5----------------6---------|
2----------5----------------6---------|
3----------7----------------8---------|
4----------7----------------8---------|
5-------------------------------------|
6-------------------------------------|
la necedad de asumir al enemigo
la necedad de morir sin tener precio.


1-----5-----------5------3--|
2-----6-----------5------3--|
3-----7-----------7------5--|
4-----7-----------7------5--|
5-----5-----------5------3--|
6---------------------------|
yo no se lo que es el destino
caminando fui lo que fui
alla dios que sera divino

1-----7-------5-----3--|
2-----8-------5-----3--|
3-----9-------7-----5--|
4-----9-------7-----5--|
5-----7-------5-----3--|
6----------------------|
yo me muero como vivi
yo me muero como vivi   LAm
yo me muero comoo vivii!

1----------------|
2----------------|
3----------------|
4----------------|
5-----2-3----3-0-|
6--0-------------|

1----------------|---------------|
2|---------------|---------------|
3|---------------|---------------|
4|---------------|---------------|
5|--------7-5-7--|--------7-5-7--|
6|--0-0----------|--0-0----------|

1----------------------------|
2----------------------------|
3----------------------------|
4----------------------------|
5---------7-5-7-7-5----------|   se repite
6--0-0--------------7-5-3----|   3 veces.

1------------------------|------------------------|
2------------------------|------------------------|
3--------2---------------|------------------------|
4----2-4---4-2-0-2-5-4---|------4-2---------------|
5------------------------|----------5-3--------3--|
6--0---------------------|--0-0----------5-3-0----|

1-----------------------|-------------------------|
2-----------------------|-------------------------|
3-----------------------|-------------------------|
4--------------6--5--4--|------4-2----------------|
5--------------4--3--2--|----------5-3---------3--|
6--0--3-5-3-------------|--0-0----------5-3-0-----|

1-----------------------|-------------------------|
2-----------------------|-------------------------|
3-----------------------|-------------------------|
4--------------6--5--4--|-------------------------|
5--------------4--3--2--|-------------------------|
6--0--3-5-3-------------|-000-333-222-111-0--0----|

1---------------------------|
2---------------------------|
3---------------------------|
4------4-2------------------|
5----------5-3--------------|
6--0-0----------5-3-0--0~~--|


ay esta este temazo de silvio versionado por los bunkers.
ay algunos acordes que tengo duda si estan correctos o no
pero el resto esta bien.
alguna duda escribanme [email protected]

y si ay algun bajista que quiera formar un grupo con este tipo de
musica tambien escriban.
Aviso: Este fichero es trabajo propio de su transcriptor y representa su interpretación personal de la canción. El material contenido en esta página es para exclusivo uso privado, por lo que se prohibe su reproducción o retransmisión, así como su uso para fines comerciales.

Califica esta canción


Comentarios en Facebook