Enviado por:
anonimo

Reik, Como Me Duele

Bleh!! k flojera, pero tenia que sacar esta canción ni modo..aquí la
tienen estoy seguro de que todos los acordes y riffs o arpegios o lo
que sea están al 100% correctos. Otra vez les recuerdo que yo no soy
un profesional asi k pss.. me
hace falta aprender... ACEPTO SUGERENCIAS!!

Bueno difrutenla! y saludos a ANITA de San Fernando.. ñiña TQM =)

....       ............       ...........         ..............
* Otra vez no me se los nombres de algunos de los acordes
asi que los pongo así:
(Por raro que paresca esta canción tiene pocos acordes, pero
tiene muchos riffs.. asi se dice?.. y esta más o menos complicada)
- Los acordes de la guitarra electrica están entre parentesis.

G1 - x 2 2 0 3 2
Cadd5 - 3 2 0 3 3
G - 3 2 0 0 3 3
D2 - x 0 0 0 3 2

*--------------------------*
|RB:Rasgueo hacia abajo    |
|h: Hammer o  martilleo    |
|p: pull off o jalar,      |
|   pero se escucha bien   |
|   solo soltandola        |
*--------------------------*



Intro - GUITARRA Acustica                          Intro - GUITARRA Elect
----------------------------------------------   ---------------------
-7---5---5--3--------------------7---5---5--3-   ---------------------
--4-4-0-4---2---------------------4-4-4-4---2-   ---------------------
---0---0----0--------0---------0---0---0----0-   ---------------------
------------x---3------3-----3--------------3-   ---------------------
------------x-3--3--2----3p2----------------0-   -15------10------14--

            R                               R
            B                               B


========================================================================

 GUITARRA Electr (riff 1)
-----------------------
-----------------------
-----------------------
-------2-0-------------
-----3-----3-----------
-3p2-------------------

G1                 Cadd5
Se me termina el tiempo
            G1                       Cadd5
ya,  no,  puedo estar un día más sin ti
          G1                   Cadd5
ya, las, lagrimas empiezan a salir
         G1
eh comenzado
  Cadd5                              G1
a ver lo bello de un principio y lo triste
 Cadd5
de un final

GUITARRA Electr (Con efecto de eco)
-------
-------
-4-----
---0---
-----3-
-------

========================================================================
      Cadd5
Pero como me duele el miedo a tenerte
G                      G1
como tenerte si ya me duele perderte
     Cadd5
Pero como me duele el miedo a tenerte
G                      G1             Cadd5
como tenerte si ya me duele perderte

G               G1
me duele... perderte
(Se repite intro)

========================================================================

GUITARRA Electr (riff 1)
-----------------------
-----------------------
-----------------------
-------2-0-------------
-----3-----3-----------
-3p2-------------------

G1
Tu abrazo es un respiro
       Cadd5
con un beso me mantienes vivo
     G1                      Cadd5
tu mirada es un bello amanecer
G1
si tanto eh esperado
  Cadd5
poder sentir algo tan grande
        G1
es muy triste
     Cadd5
ver su final

GUITARRA Electr (Con efecto de eco)
-------
-------
-4-----
---0---
-----3-
-------

=======================================================================

      Cadd5
Pero como me duele el miedo a tenerte
G                      G1
como tenerte si ya me duele perderte
     Cadd5
Pero como me duele el miedo a tenerte
G                      G1             Cadd5
como tenerte si ya me duele perderte
G               G1
me duele... perderte


|--G1-||---D2-----| |----------Cadd5-----------|
------------------------------------------------
--------5------------3--------------------------
----------0------------2---------------------0--  3 veces
-----0----------0------------0-------0-----0----
---7----------5------------3---3---3-----3------
-7----------5------------3-3-----3-----2--------


G1
si tanto eh esperado
  Cadd5
poder sentir algo tan grande
        G1
es muy triste
     Cadd5
ver su final


|--G1-||---D2-----| |----------Cadd5-----------|
------------------------------------------------
--------5------------3--------------------------
----------0------------2------------------------
-----0----------0---------------7---------------
---7----------5------------7-8--8---------------
-7----------5------------------10---------------

                                R
                                B
Aviso: Este fichero es trabajo propio de su transcriptor y representa su interpretación personal de la canción. El material contenido en esta página es para exclusivo uso privado, por lo que se prohibe su reproducción o retransmisión, así como su uso para fines comerciales.

Califica esta canción


Comentarios en Facebook