Enviado por:
anonimo

No Te Va Gustar, Como Brillaba Tu Alma

Imprimir
Hola de nuevo...
Esta transcripción está escrita paso por paso
 durante todo el tema...


Los (x) son un muteo en la cuerda y nota especificada...
|---------------------------|-------------------------|
|---------------------------|-------------------------|
|---------------------------|-------------------------|
|---------------------------|-------------------------|
|-----5-----5-----5--5------|----5-----5-----5--------|
|--(3)-3-(3)-3-(3)-3--6-5-33|-(3)-3-(3)-3-(3)-3-0-1-2-|
                            Guitarra                Voz*

|--------------------------|--------------------------|
|--------------------------|--------------------------|
|--------------------------|--------------------------|
|--------------------------|--------------------------|
|----5-----5-----5--5------|----5-----5-----5---------|
|-(3)-3-(3)-3-(3)-3--6-5-33|-(3)-3-(3)-3-(3)-3-5-6-7--|

*Gm
 Vos compraste tu educación, te dejaste rascar el lomo´
(Esto va con la tablatura de arriba claro está,no...¿?)

|---------------------------|-------------------------|
|---------------------------|-------------------------|
|---------------------------|-------------------------|
|---------------------------|-------------------------|
|----10-----10------3-----3-|-----5-----5-----5-------|
|-(8)--8-(8)--8--(1)-1-(1)-1|--(3)-3-(3)-3-(3)-3-0-1-2|

 Cm F Gm
 un día decís me las tomo, y no mostraste nada



|--------------------------|--------------------------|
|--------------------------|--------------------------|
|--------------------------|--------------------------|
|--------------------------|--------------------------|
|----5-----5-----5--5------|----5-----5-----5---------|
|-(3)-3-(3)-3-(3)-3--6-5-33|-(3)-3-(3)-3-(3)-3-5-6-7--|

 Gm
 Ahora alquilás el amor,    te excitaban otras cosas


|---------------------------|-------------------------|
|---------------------------|-------------------------|
|---------------------------|-------------------------|
|---------------------------|-------------------------|
|----10-----10------3-----3-|-----5-----5-----5-------|
|-(8)--8-(8)--8--(1)-1-(1)-1|--(3)-3-(3)-3-(3)-3-5-6-7|

 Cm F Gm
 Ibas a cambiar el mundo, y no cambiaste nada


|------------------------------------------------------|
|------------------------------------------------------|
|------------------------------------------------------|
|------------------------------------------------------|
|----10-----10-----8-----6-----5-----5-----5-----------|
|-(8)--8-(8)--8-(6)-6-(4)-4-(3)-3-(3)-3-(3)-3-5-6-7----|

 Cm A# G# Gm
 Hay que remar igual en subida que en la bajada

|--------------------------------------------------------|
|--------------------------------------------------------|
|--------------------------------------------------------|
|---------------------------------------------5-3--------|
|----10-----10-----8-----6-----5-----5-----5-----5-3-----|
|-(8)--8-(8)--8-(6)-6-(4)-4-(3)-3-(3)-3-(3)-3-------5-2-3|

Cm A# G# Gm
 lo mismo es errarle a la salida que a la llegada

|---------------------------------------------------------|
|---------------------------------------------------------|
|---------------------------------------------------------|
|---------------------5-3---------------------------------|
|---------------------------------------------------------|
|---------------------------------------------------------|

 Gm
 Cuando todo estaba oscuro

|----------------------------------------|
|----------------------------------------|
|----------------------------------------|
|----------------------5-----7----8---8--|
|----------------------------------------|
|--------------------3---3-5--5-6--6-7--7|

 ay como brillaba tu alma

|--------------------------------|
|--------------------------------|
|--------------------------------|
|----10------3------5------------|
|--10--10---3-3----5-5-3---------|
|-8------8-1---5-3------6-5-2-3--|

 Cm F Gm
 hoy se apagaron tus luces, ya no te brilla nada...


Y ta de ahi manejensé porq' después utiliza lo mismo
 en todo el tema...

Suerte...

Ezeqiel...
Aviso: Este fichero es trabajo propio de su transcriptor y representa su interpretación personal de la canción. El material contenido en esta página es para exclusivo uso privado, por lo que se prohibe su reproducción o retransmisión, así como su uso para fines comerciales.

Califica esta canción


Comentarios en Facebook