Enviado por:
anonimo

Los Bunkers, Nada Es Igual

Imprimir
Bueno aca esta la intro y el solo de este tema....


                LAm-DO-MIm-SOL
      Intro:
 e|--------------------------------------------------------
 B|--------------------------------------------------------
 G|--------------------------------------------------------
 D|--------------------------------------------------------  x2
 A|--0---0-0--2-3--5-7--2--3-2-0---------------------------
 E|-------------------------------3------------------------


antes del solo lo mismo que el intro....

     Solo:
e------------------------------------
B------------------------------------
G--4-5-4-5-4-5-4---------------------
D------------------------------------
A------------------------------------
E------------------------------------


e------------------------------------
B------------------------------------
G--4-5-4-5-4-5--4-2------------------
D-------------------5-4--------------
A------------------------------------
E------------------------------------


e------------------------------------
B------------------------------------
G----2-----------2-------------------
D--5---5-4-4---5---5-4---------------
A------------------------------------
E------------------------------------

        final:

 e|--------------------------------------------------------
 B|--------------------------------------------------------
 G|--------------------------------------------------------
 D|--------------------------------------------------------
 A|--0---0-0--2-3--5-7--2--3-2-0---------------------------
 E|-------------------------------3------------------------



 e|--------------------------------------------------------
 B|--------------------------------------------------------
 G|-----------------------2----------2------------2--------
 D|---------------------5---5--4---5---5--4-4---5---5--4---
 A|--0---0-0--2-3--5-7-------------------------------------
 E|--------------------------------------------------------

      termina:RE-LAm-MIm.
Aviso: Este fichero es trabajo propio de su transcriptor y representa su interpretación personal de la canción. El material contenido en esta página es para exclusivo uso privado, por lo que se prohibe su reproducción o retransmisión, así como su uso para fines comerciales.

Califica esta canción


Comentarios en Facebook