Enviado por:
anonimo

Los Piojos, Cruel

Imprimir
Intro:
   D5
e|--------------|--||
b|--------------|--||
g|-7-7----------|--||
d|-7-7----------|x4||
a|-5-5----------|--||
E|--------------|--||
(entra bateria)

Guitarra 1:
Riff G 
e|--------------|--||
b|--------------|--||
g|----3-5----3-3|--||
d|-5-5---5-5----|x8||
a|--------------|--||
E|--------------|--||
Guitarra 2:
(escuchar bien)
e|---------|----------|----------|----------|--||
b|---------|----------|-11-11-11-|----------|--||
g|9h10-9h10|9h10-10-10|----------|9h10-10-10|--||
d|---------|----------|----------|----------|x2||
a|---------|----------|----------|----------|--||
E|---------|----------|----------|----------|--||

Estrofa 1:

G5
Un mundo cruel
F5
una noche cruel
Bb5
una ciudad dormida
        D5
y sin sueño

G5
Un beso final
F5
sonrisa y despues
Bb5
te vas alejando
        D5
sin remedio....

Estribillo:

G5                   F5
Nunca te ví en ningun aviso
Bb5                  D5
nunca te ví en la televisión

G5                    F5
Nunca te vi en ningun diario
Bb5                   D5
nunca, nunca, nunca, escuche tu voooz.

Puente:
Guitarra 1:
Riff G 
e|--------------|--||
b|--------------|--||
g|----3-5----3-3|--||
d|-5-5---5-5----|x8||
a|--------------|--||
E|--------------|--||
Guitarra 2:
e|----|-----|--------|---------|--||
b|-11-|11-11|11-11-11|-10-10-10|--||
g|-10-|10-10|10-10-10|-9--9--9-|--||
d|----|-----|--------|---------|x4||
a|----|-----|--------|---------|--||
E|----|-----|--------|---------|--||

Estrofa 2:
G               F
Lavan tu razón, queman tu corazón
Bb                   D
la única aventura es ver colores..
G               F
Te despertaré,  despertame ya
Bb                   D
de esta pesadilla de ilusiones...

Estribillo:
G5                   F5
Nunca te ví en ningun aviso
Bb5                  D5
nunca te ví en la televisión

G5                    F5
Nunca te vi en ningun diario
Bb5                   D5
nunca, nunca, nunca, escuche tu voooz.

Solo sobre Riff GM
(La verdad, inentendible de tanto Wah Wah, perdón)

Estrofa 3:

 G5                                   F5
Una noche mas ya no voy a dormir en tus brazos
A#5
 No sé que me tomo, no sé donde estoy
D5
no sé hacia donde van mis pasos
G5
Que rara y vacía y desierta y perdida
F5
está la avenida hoy
A#5
 que rara y vacía y desierta y perdida
D5
 estás...

Fin:
G5
F5
LA LA LA LA
Bb5                    D5
somos fantasmas peleándole al viento
G5

F5
LA LA LA LA
Bb5                    D
somos fantasmas peleándole al viento


D5 A5 G F#5
Aviso: Este fichero es trabajo propio de su transcriptor y representa su interpretación personal de la canción. El material contenido en esta página es para exclusivo uso privado, por lo que se prohibe su reproducción o retransmisión, así como su uso para fines comerciales.

Califica esta canción


Comentarios en Facebook