Enviado por:
anonimo

Los Piojos, Angelito

Imprimir
Intro:


Guitarra 1:
    Em  Em            Em                 C
e|---------|------------|--------------------||
b|---------|------------|----------------1---||
g|---------|------------|----------------0---||
d|--2---2--|----------2-|-2--------------2---||
a|--2---2--|----------2-|-2-------2------3---||
e|--0---0--|-0--3--2--0-|-0--0--3------------||

Guitarra 2:
    Em  Em            Em                 C
e|--0---0--|----------0-|-0--------------0---||
b|--0---0--|----------0-|-0--------------1---||
g|--0---0--|----------0-|-0--------------0---||
d|--2---2--|----------2-|-2--------------2---||
a|--2---2--|----------2-|-2--------------3---||
e|--0---0--|----------0-|-0------------------||

Bajo:
g|---------|------------|-----------|--------||
d|---------|------------|-----------|---2/---||
a|---------|------------|---------2-|---3/---||
e|--0---0--|-0--3--2--0-|0--0--3----|--------||

Verso 1:


Guitarra 1 (Pity):
         A           F
e|-------------|------------|--||
b|---------2---|------------|--||
g|--------2----|-----ƒ------|--||
d|-------2-----|------------|x3||
a|------0------|------------|--||
e|-------------|------------|--||
PM..............

Guitarra 2 (Tavo):


e|---------------||
b|---------------||
g|-------ƒ-------||
d|---------------||
a|---------------||
e|---------------||

Bajo:

g|------2------|-----2------|--||
d|----2---2----|---3---3----|--||
a|--0-------0-0|-3-------3-3|x3||
e|-------------|------------|--||



A
Harto del viejo borracho
F
Angelito camina por la calle
A
ángel caído va
F
ángel caído y sin talle
A
Una revancha quizás
F
a lo que no pudo ser
A
bronca que raja la espalda


Puente:


Guitarra 1 (Tavo):

e|-----------------||
b|-----------------||
g|---------ƒ-------||
d|-----------------||
a|-----------------||
e|-----------------||

Guitarra 2 (Pity):

          F                 G
e|--------1--------||--------3--------||
b|--------1--------||--------3--------||
g|--------2--------||--------4--------||
d|--------3--------||--------5--------||
a|--------3--------||--------5--------||
e|--------1--------||--------3--------||

Bajo:
       F            G             A
g|-----2------|-----4------|------2------||
d|---3---3----|---5---5----|----2---2----||
a|-3-------3-3|-5-------5-5|--0-------0-0||
e|------------|------------|-------------||

F
se está haciendo tarde
G                      A
y parece que va a llover.

Intro:


Guitarra 1:
    Em  Em            Em                 C
e|---------|------------|--------------------||
b|---------|------------|----------------1---||
g|---------|------------|----------------0---||
d|--2---2--|----------2-|-2--------------2---||
a|--2---2--|----------2-|-2-------2------3---||
e|--0---0--|-0--3--2--0-|-0--0--3------------||

Guitarra 2:
    Em  Em            Em                 C
e|--0---0--|----------0-|-0--------------0---||
b|--0---0--|----------0-|-0--------------1---||
g|--0---0--|----------0-|-0--------------0---||
d|--2---2--|----------2-|-2--------------2---||
a|--2---2--|----------2-|-2--------------3---||
e|--0---0--|----------0-|-0------------------||

Bajo:
g|---------|------------|-----------|--------||
d|---------|------------|-----------|---2/---||
a|---------|------------|---------2-|---3/---||
e|--0---0--|-0--3--2--0-|0--0--3----|--------||

Verso 2:


Guitarra 1 (Pity):
         A           F
e|-------------|------------|--||
b|---------2---|------------|--||
g|--------2----|-----ƒ------|--||
d|-------2-----|------------|x3||
a|------0------|------------|--||
e|-------------|------------|--||
PM..............

Guitarra 2 (Tavo):


e|---------------||
b|---------------||
g|-------ƒ-------||
d|---------------||
a|---------------||
e|---------------||

Bajo:

g|------2------|-----2------|--||
d|----2---2----|---3---3----|--||
a|--0-------0-0|-3-------3-3|x3||
e|-------------|------------|--||

A
Harto del viejo borracho
F
Angelito camina por la calle
A
un poco por caminar
F
y mucho por olvidarse
A
ángel caído va
F
a lo que no pudo ser
A
tirando de una esperanza


Puente:


Guitarra 1 (Tavo):

e|-----------------||
b|-----------------||
g|---------ƒ-------||
d|-----------------||
a|-----------------||
e|-----------------||

Guitarra 2 (Pity):

          F                 G
e|--------1--------||--------3--------||
b|--------1--------||--------3--------||
g|--------2--------||--------4--------||
d|--------3--------||--------5--------||
a|--------3--------||--------5--------||
e|--------1--------||--------3--------||

Bajo:
       F            G             A
g|-----2------|-----4------|------2------||
d|---3---3----|---5---5----|----2---2----||
a|-3-------3-3|-5-------5-5|--0-------0-0||
e|------------|------------|-------------||

F
se está haciendo tarde
G                      A
y parece que va a llover.


Estribillo 1:


A dos guitarras;

Acordes:

|F|G|E|D|C|
|1|3|0|2|0|
|1|3|0|3|1|
|2|4|1|2|0|
|3|5|2|0|2|
|3|5|2|x|3|
|1|3|0|x|x|

G     F        E       D              G
Voy a caminar, voy a descender
        F      E       D              G
el subte tomar, y después veré
       F        E          D          G
hacia aquel lugar, no quiero volver
      F        E    D  C
puedo conversar con una pared...


Bajo:

(Repite esta sucesion)

     G       F       E       D        C
g|-------|-------|-------|-------|---------||
d|-------|-------|-------|-------|---------||
a|-------|-------|-------|5-5-5-5|----3----||
e|3-3-3-3|1-1-1-1|0-0-0-0|-------|---------||

Verso 3:


Guitarra 1 (Pity):
         A           F
e|-------------|------------|--||
b|---------2---|------------|--||
g|--------2----|-----ƒ------|--||
d|-------2-----|------------|x3||
a|------0------|------------|--||
e|-------------|------------|--||
PM..............

Guitarra 2 (Tavo):


e|---------------||
b|---------------||
g|-------ƒ-------||
d|---------------||
a|---------------||
e|---------------||

Bajo:

g|------2------|-----2------|--||
d|----2---2----|---3---3----|--||
a|--0-------0-0|-3-------3-3|x3||
e|-------------|------------|--||

A
Subido al límite
F
del viejo edificio
A
Angelito sonríe y se excita
F
de pensar en caer.
A
Caer caer
F
borde del atardecer
A
todo por un precipicio

Puente:


Guitarra 1 (Tavo):

e|-----------------||
b|-----------------||
g|---------ƒ-------||
d|-----------------||
a|-----------------||
e|-----------------||

Guitarra 2 (Pity):

          F                 G
e|--------1--------||--------3--------||
b|--------1--------||--------3--------||
g|--------2--------||--------4--------||
d|--------3--------||--------5--------||
a|--------3--------||--------5--------||
e|--------1--------||--------3--------||

Bajo:
       F            G             A
g|-----2------|-----4------|------2------||
d|---3---3----|---5---5----|----2---2----||
a|-3-------3-3|-5-------5-5|--0-------0-0||
e|------------|------------|-------------||

F
se está haciendo tarde
G                      A
y parece que va a llover.


Estribillo 1:


A dos guitarras;

Acordes:

|F|G|E|D|C|
|1|3|0|2|0|
|1|3|0|3|1|
|2|4|1|2|0|
|3|5|2|0|2|
|3|5|2|x|3|
|1|3|0|x|x|

G     F        E       D              G
Voy a caminar, voy a descender
        F      E       D              G
el subte tomar, y después veré
       F        E          D          G
hacia aquel lugar, no quiero volver
      F        E    D  C
puedo conversar con una pared...


Bajo:

(Repite esta sucesion)

     G       F       E       D        C
g|-------|-------|-------|-------|---------||
d|-------|-------|-------|-------|---------||
a|-------|-------|-------|5-5-5-5|----3----||
e|3-3-3-3|1-1-1-1|0-0-0-0|-------|---------||


Saludos!
Aviso: Este fichero es trabajo propio de su transcriptor y representa su interpretación personal de la canción. El material contenido en esta página es para exclusivo uso privado, por lo que se prohibe su reproducción o retransmisión, así como su uso para fines comerciales.

Califica esta canción


Comentarios en Facebook