Enviado por: Anonimo
Agrandar Letra
Reducir Letra




Canciones populares, Sombrero de sao

Esta canción es muy popular en mi pais especialmente
en el oriente boliviano, ahí les va espero que les
guste.

e--1-1-1-1--0-0-0-0-------------------0---1-1-1-1----
b-3-3-3-3--1-1-1-1----3-3-3-3-1-0-1-3----3-3-3-3-----
g--------------------4-4-4-4-------------------------
d----------------------------------------------------
a----------------------------------------------------
E----------------------------------------------------


e--0-0-0-0------0------------------------------------
b-1-1-1-1----3-3-3-1-0-------------------------------
g-----------4-4--------2-----------------------------
d----------------------------------------------------
a----------------------------------------------------
E----------------------------------------------------

Am                        E7
A esa pelada yo le ragalaré
                            Am
para su santo sombrero de saó
                                    E7
pa´ que me tape y me tape a mi también
Dm            C       E7        Am
cuando yo la bese debajo el ocoró



Am              G7                C
Si en la tranquera me pilla su mamá
              G7              C
con el sombrero yo la saludaré
       F                  C
oiga señora yo le contestaré 
                 E7                 Sm
señora buenas tardes como le va a usted


CORO:

   Am                                   E7
Oí, flojo simverguenza tira vida que querés
                                         Am
a su ija doña a esta, a quien más a de ser
                                    E7
acaso con canciones la vas a mantener
          Dm          C       E7        Am
con canciones no señora, con este corazón



   Am                                   E7
Oí, flojo simverguenza tira vida que querés
                                         Am
a su ija doña a esta, a quien más a de ser
                                    E7
acaso con canciones la vas a mantener
          Dm          C       E7        Am
con canciones no señora, con este corazón



Eso es todo, saludos desde el corazón de
América, Bolivia.

Fuente original: LaCuerda
Colaborador original: Michael Illanes [[email protected]]
Aviso: Este fichero es trabajo propio de su transcriptor y representa su interpretación personal de la canción. El material contenido en esta página es para exclusivo uso privado, por lo que se prohibe su reproducción o retransmisión, así como su uso para fines comerciales.

Califica esta canción


Comentarios en Facebook