Enviado por:
anonimo

Camila, Esto Es Verdad

Imprimir
TTEEEE AAAAMOOOOOO ROOOOOOO....  con todo mi amor para ti.
XOXOxxooOOXXoxO.... Ni mandada hacer.. esta cancion dice
lo que un estubo en nuestro pensamiento y no podiamos expresar
eres todo lo que pedia, lo que mi
alma vacia keria sentir. te amoooooooooooooooo.
                            ♥7092006937♥




Es muy sencillo tocarla son 3 simples notas y la guitarra con
capo en el cuarto traste y listo.. espero la disfruten tanto
como nosotros, buenisima cancion.



¨Capo en 4to traste¨


                          Primer estribillo

   D#add9                                        Aadd9
E---4------------------------------------------------------------
A------6---------------6-------------------------4---------------
D------------8------------8--------------------------6-----------
G---------8---------------------8---------------------------6----
B----------------------------6---------------------------4-------
e----------------------------------------------------------------
   Eres todo lo que pedia      lo que mi alma vacia




               E
E--------------4-------------------------------------------------
A-----------------6----------------------------------------------
D----------------------6-----------------------------------------
G-------------------5--------------------------------------------
B----------------------------------------------------------------
e----------------------------------------------------------------
   queria sentir

                        Segundo Estribillo



   D#add9                                        Aadd9
E---4------------------------------------------------------------
A------6---------------6-------------------------4---------------
D------------8------------8--------------------------6-----------
G---------8---------------------8---------------------------6----
B----------------------------6---------------------------4-------
e----------------------------------------------------------------
    Eres lo que tanto esperaba lo que en sueños     buscaba



              E           Esus
E--------------4-------------------------------------------------
A-----------------6----------------------------------------------
D----------------------6--------6--------------------------------
G-------------------5-------6p5----------------------------------
B----------------------------------------------------------------
e----------------------------------------------------------------
  y que en ti    descubri



                    (PRECORO)
Aadd9                  E

Tu has llegado a encender cada parte de mi



E---------------------------------------------------------------
A----------------------------8----------------------------------
D---6-----------5-------------6---------------------------------
G----8--------------8----------8--------------------------------
B-----4-----------------4-------4-------------------------------
e-----4-----------------4-------4-------------------------------

   alma cada espacio de mi ser


                 Aadd9
Ya no tengo corazon

                D#add9
ni ojos para nadie

          Aadd9
solo para    ti.......


      (Tercer Estribillo)
 E                     D#add9
Eres el amor de mi vida
                 Aadd9
el destino lo sabia
                   E
y hoy te puso ante mi
                             D#add9
y cada vez que miro al pasado
                            Aadd9
es que entiendo que a tu lado
                 E
siempre perteneci



(precoro)
          E
solo para ti
          Aadd9
solo para ti
           E
solo para ti


     (CORO)
 Aadd9
Esto es de verdad
 E
lo puedo sentir
 Aadd9                     D#add9
se que mi lugar es junto a ti

                 Aadd9 E Aadd9           E Esus E
                         es junto a ti


D#add9                                        Aadd9
E---4---------------------------------------------------------
A------6---------------6-------------------------4------------
D------------8------------8--------------------------6--------
G---------8---------------------8---------------------------6-
B----------------------------6---------------------------4----
e-------------------------------------------------------------
   Eres todo lo  que pedia       lo que no conocia



               E
E--------------4-----------------------------------------
A-----------------6--------------------------------------
D----------------------6---------------------------------
G-------------------5------------------------------------
B--------------------------------------------------------
e--------------------------------------------------------
  y que en ti descubri.



D#add9   068866
Aadd9    002200
E        022100
Esus     002220
Aviso: Este fichero es trabajo propio de su transcriptor y representa su interpretación personal de la canción. El material contenido en esta página es para exclusivo uso privado, por lo que se prohibe su reproducción o retransmisión, así como su uso para fines comerciales.

Califica esta canción


Comentarios en Facebook